Oops, an error
Loading. Please wait.

Pedestrian At Best tab

8,475 views 48 this week
2 commentsread comments
1 2 3 4 5
x 10
add to favorites
×
Save as Personal and add changes to this tab that will be seen only by you. Learn more ›
×
You can save this tab as Personal to edit and correct it or add notes. All changes will be seen only by you. Learn more »
launch autoscroll
font size
0
reset
how to read this tab
guitar tuner
edit
Autoscroll
slow
fast
+/-
esc
set tempo
stop
Author
Difficulty
intermediate
-------------------------------------------------------------------------------
                             PEDESTRIAN AT BEST: Courtney Barnett 
-------------------------------------------------------------------------------   Date: 12/10/15
Tabbed by: hutcho0181    I'v been wanting to tab this for months, and I finally have.
                         This song has Dan Luscombe on lead guitar, iv named the parts Courtney's and Dans
E-mail:                  This is as close as i could get to a perfect tab without using head phones.
                          Have fun guys :)

Tuning: Standard tuning , E A D G B E 

Courtneys part, intro, main riff sliding F#maj/ Emaj Cycles through Twice.
e|---------------------------------------------------------------------------|
B|--2--0-/--2----0-/--2----0-/---2----0--0--0--------------------------------|
G|--3--1-/--3----1-/--3----1-/---3----1--1--1--------------------------------|
D|--4--2-/--4----2-/--4----2-/---4----2--2--2--------------------------------|
A|--4--2-/--4----2-/--4----2-/---4----2--2--2--------------------------------|
E|--2--0-/--2----0-/--2----0-/---2----0--0--0--------------------------------|
 
 Dans part , play this once, then play the sliding harmony just below for the intro.
e|------------------------------------------------|
B|--11---9--/--11---9-/--11---9-/--11----9--9---9-|
G|--11---9--/--11---9-/--11---9-/--11----9--9---9-|
D|--11---9--/--11---9-/--11---9-/--11----9--9---9-|
A|--9----7--/--9----7-/--9----7-/--9-----7--7---7-|
E|------------------------------------------------|
 
 Dans part, sliding harmony (octave slides)
e|---------------------------------------------------------------------------|
B|---------------------------------------------------------------------------|
G|-11-/---8-/----9-/--------6-/---8-/-----4-/--6-/---2-----------------------|
D|---------------------------------------------------2-----------------------|
A|--9-/---6-/----7-/--------4-/---6-/-----2-/--4-/---o-----------------------|
E|---------------------------------------------------------------------------|


Verses :)
Courtneys part verse 

e|---------------------------------------------------------------------------|
B|---------------------------------------------------------------------------|
G|---------------------------------------------------------------------------|
D|---------------------------------------------------------------------------|
A|---------------------------------------------------------------------------|
E|-2---2-2---2-2----2-2--0-0-0-0---------------------------------------------|
  
Dans part,verse happens every second bar in the verse
e|------------------------------------------------|
B|--11---9--/--11---9-/--11---9-/--11----9--9---9-|
G|--11---9--/--11---9-/--11---9-/--11----9--9---9-|
D|--11---9--/--11---9-/--11---9-/--11----9--9---9-|
A|--9----7--/--9----7-/--9----7-/--9-----7--7---7-|
E|------------------------------------------------|


CHORUS!!!!!!! dont bore us get to the chorus ;) Courtneys part !
   F#maj, Emaj, Amaj, Bmaj 
e|-------------------------------------------------|
B|--2--2--2----0-0-0-0----2--2--2------------------|
G|--3--3--3----1-1-1-1----2--2--2----4--4--4---4---|
D|--4--4--4----2-2-2-2----2--2--2----4--4--4---4---|
A|--4--4--4----2-2-2-2----0--0--0----2--2--2---2---|
E|--2--2--2----0-0-0-0-----------------------------|
 

Dans part ! chorus bend to B and C# tip, when you bend the string let the notes ring
 as you let them down slightly
 they will sound more like the bends on the recording 
e|--------------------|
B|--12---------14-----|
G|--14b(16)----16b(18)|
D|--------------------|
A|--------------------|
E|--------------------|

They are the guitar parts that cycle through the song, and then there is this bend as well that I call the
 
" I wanna wash out my hair with turpintine syanide" bend  I hope this helps anyone who wants to learn it 

e|-----------0----|
B|-----------0----|
G|-----------3b(4)|
D|----------------|
A|----------------|
E|----------------|



************************************

| /  Slide up

************************************
Suggest correction
Creating personal tab
Creating personal tab
You can edit any tab online and save it as your Personal.

You can edit, replace or remove any tab part or add personal notes – all changes will be seen only by you.

Personal tabs can be accessed anytime from any device, even offline.
Learn more »
comments
print report bad tab
2 comments total.
+1 reply
zackman13 10 Dec 09, 2015 05:58 AM

Thank you, you wonderful human being! I've wanted to learn this song for my girlfriend since august but didn't get a chance to learn it by ear, this tab made it so easy :D

5 star / A+++

guest
You may want to rate the tab now too:
select rating
Wanna post a correction for this tab? Suggest correction