Oops, an error
Loading. Please wait.

Never Gonna Be The Same Tab

3,064 views 1 this week
2 commentsread comments
1 2 3 4 5
1 last vote to show rating
add to favorites
launch autoscroll
font size
0
reset
how to read this tab
guitar tuner
Autoscroll
slow
fast
+/-
esc
set tempo
stop
Help us to improve Ultimate-Guitar.com Take our survey!
×
Difficulty
intermediate
NEVER GONNA BE THE SAME
Artist: Courtney Love
Composed by: Courtney Love, Linda Perry
Tabbed by: Nathan.

The whole song (I may have the tuning wrong by it's just tuned down half a step)

eb|-------------------------------------------------------------0-----------------------0--------|
G#|--------2--0-------0---1------1--0------0--1--------1-----------1-----------0--1--3-----3-----|
C#|------0----------0--------------------0----------0-----2-----------0-----0-----------------0--|
F#|----------------------------2-----------------------------------------------------------------|
Bb|---3----------2-----------0-------------------------------------------------------------------|
Eb|------------------------------------2---------0-----------0-----------2-----------------------|
Suggest correction
Give kudos to tab author, rate the tab!
1 2 3 4 5
comments
print report bad tab
2 comments total.
+1 reply
sugarteeth 32 Jun 12, 2007 06:44 PM

I noticed that I made an error on the tab: the first note on the second string should be a C note (first instead of second fret).

eb|-------------------------------------------------------------0-----------------------0--------|
G#|--------1--0-------0---1------1--0------0--1--------1-----------1-----------0--1--3-----3-----|
C#|------0----------0--------------------0----------0-----2-----------0-----0-----------------0--|
F#|----------------------------2-----------------------------------------------------------------|
Bb|---3----------2-----------0-------------------------------------------------------------------|
Eb|------------------------------------2---------0-----------0-----------2-----------------------|

+1 reply
evh300 10 Jun 21, 2007 11:36 PM

thank you for tabing this song,i love it,not too many people understand her,i get it ,and im sure you do 2! thankx

guest
You may want to rate the tab now too:
select rating
Wanna post a correction for this tab? Suggest correction