Oops, an error
Loading. Please wait.

Hydra tab

by Covet
1,975 views 81 this week
3 commentsread comments
1 2 3 4 5
x 3
add to favorites
×
Save as Personal and add changes to this tab that will be seen only by you. Learn more ›
×
You can save this tab as Personal to edit and correct it or add notes. All changes will be seen only by you. Learn more »
launch autoscroll
font size
0
reset
how to read this tab
guitar tuner
edit
Autoscroll
slow
fast
+/-
esc
set tempo
stop
Author
Difficulty
Covet's Bandcamp: https://covetband.bandcamp.com/
Hydra video: https://www.youtube.com/watch?v=D5OJNVKqLmM
Yvette Young's guitar playthrough I figured out tabs from: https://www.youtube.com/watch?v=s22dceatYTw

7th string will be tabbed, but alternate notes (octave higher) for 6 string guitars will be in parenthesis

Part 1
(0:00)
E |-9----------------------------------------------------0---12T-/-14------------|
B |-----10-p-9--------------------------10------9h10p9------------------12t-/-14-|
F#|--------------10t--------------10t--------------------------------------------|
D |--------------------11t-------------------------------------------------------|
A |--------------------12T-/-14--------(9)------------------------------14T-/-12-|
D |-0------------------12T-/-14--------------------------------------------------|
A |-------------------------------------9----------------------------------------|

(0:03)
E |---------9-------7-/-9---12T-/-14---5---4h5p4--------------------------|
B |-----7-------------------12T-/-14---------------5t---------------------|
F#|-----------------------------------------------------5t-/-7--------10T-|
D |-----------------------------------------------------------------------|
A |--------------------------------------------------------------9T-------|
D |-0-----------0---0------------------4----------------------------------|
A |-----------------------------------------------------------------------|

(0:06)
E |------------5-------------------------------5-h-7-/-9---12T-/-14-|
B |----2-h-3-------3-p-2---------------5-/-7---------------12T-/-14-|
F#|------------------------3-/-5---7--------------------------------|
D |-----------------------------------------------------------------|
A |-----------------------------------------------------------------|
D |-0------------------------------4--------------------------------|
A |-----------------------------------------------------------------|

(0:09)
E |-9--------9--------12-------------12-------10-------10-------9-----------9-----|
B |-----10-------10--------10---10--------0--------0--------0-------0---0-------0-|
F#|-------------------------------------------------------------------------------|
D |-------------------------------------------------------------------------------|
A |-------------------------------------------------------------------------------|
D |-0--------0--------0--------------0--------9--------9--------9-----------9-----|
A |-------------------------------------------------------------------------------|

(0:12)
E |-9----------------------------------------------------0---12T-/-14------------|
B |-----10-p-9--------------------------10------9h10p9------------------12t-/-14-|
F#|--------------10t--------------10t--------------------------------------------|
D |--------------------11t-------------------------------------------------------|
A |--------------------12T-/-14--------(9)------------------------------14T-/-12-|
D |-0------------------12T-/-14--------------------------------------------------|
A |-------------------------------------9----------------------------------------|

(0:15)
E |---------9-------7-/-9---12T-/-14---5---4h5p4--------------------------|
B |-----7-------------------12T-/-14---------------5t---------------------|
F#|-----------------------------------------------------5t-/-7--------10T-|
D |-----------------------------------------------------------------------|
A |--------------------------------------------------------------9T-------|
D |-0-----------0---0------------------4----------------------------------|
A |-----------------------------------------------------------------------|

(0:18)
E |------------5-------------------------------5-h-7-/-9---12T-/-14-|
B |----2-h-3-------3-p-2---------------5-/-7---------------12T-/-14-|
F#|------------------------3-/-5---7--------------------------------|
D |-----------------------------------------------------------------|
A |-----------------------------------------------------------------|
D |-0------------------------------4--------------------------------|
A |-----------------------------------------------------------------|

(0:21)
E |-9--------9--------12-------------12-------10-------10-------9-----------9-----|
B |-----10-------10--------10---10--------0--------0--------0-------0---0-------0-|
F#|-------------------------------------------------------------------------------|
D |-------------------------------------------------------------------------------|
A |-------------------------------------------------------------------------------|
D |-0--------0--------0--------------0--------9--------9--------9-----------9-----|
A |-------------------------------------------------------------------------------|



Part 2
(0:24)
E |------------0--------------12T--------------7------------------|
B |-----9h10------------------------12T-/-14-------7t-/-9---------|
F#|-----0---------------------------10t-\-7-----------------------|
D |----------------------9t---------------------------------14T---|
A |-(9)------------12T------------------------(7)-----------------|
D |---------------------------------------------------------------|
A |--9-----------------------------------------7------------------|

(0:26)
E |-------------------------------------------7-------0---9-------12-|
B |---------------------------0---9t--/-10--------7-----------0------|
F#|-7-p-5-----------------0------------------------------------------|
D |---------7t-/-9---11-----------14T-/-16---------------------------|
A |-----------------(9)-----------14T-/-16---(7)---------(7)---------|
D |-0----------------------------------------------------------------|
A |------------------9------------------------7-----------7----------|

(0:29)
E |------------0--------------12T--------------7------------------|
B |-----9h10------------------------12T-/-14-------7t-/-9---------|
F#|-----0---------------------------10t-\-7-----------------------|
D |----------------------9t---------------------------------14T---|
A |-(9)------------12T------------------------(7)-----------------|
D |---------------------------------------------------------------|
A |--9-----------------------------------------7------------------|

(0:31)
E |-----------7-----0---------------9t-/-12---14T---7-----------9-----|
B |---------5---9-------------------9t-/-12-------------7-----------0-|
F#|-5p3p5/7-------------------12T---------------------------0---------|
D |-------------------------------------------------------------------|
A |------------(9)------12T------------------------(7)---------(7)----|
D |-0-----------------------------------------------------------------|
A |-------------9-----------------------------------7-----------7-----|

(0:34)
E |------------0--------------12T--------------7------------------|
B |-----9h10------------------------12T-/-14-------7t-/-9---------|
F#|-----0---------------------------10t-\-7-----------------------|
D |----------------------9t---------------------------------14T---|
A |-(9)------------12T------------------------(7)-----------------|
D |---------------------------------------------------------------|
A |--9-----------------------------------------7------------------|

(0:37)
E |-------------------------------------------7-------0---9-------12-|
B |---------------------------0---9t--/-10--------7-----------0------|
F#|-7-p-5-----------------0------------------------------------------|
D |---------7t-/-9---11-----------14T-/-16---------------------------|
A |-----------------(9)-----------14T-/-16---(7)---------(7)---------|
D |-0----------------------------------------------------------------|
A |------------------9------------------------7-----------7----------|

(0:39)
E |------------0--------------12T--------------7------------------|
B |-----9h10------------------------12T-/-14-------7t-/-9---------|
F#|-----0---------------------------10t-\-7-----------------------|
D |----------------------9t---------------------------------14T---|
A |-(9)------------12T------------------------(7)-----------------|
D |---------------------------------------------------------------|
A |--9-----------------------------------------7------------------|

(0:41)
E |-----------7-----0---------------9t-/-12---14T---7-----------9-----|
B |---------5---9-------------------9t-/-12-------------7-----------0-|
F#|-5p3p5/7-------------------12T---------------------------0---------|
D |-------------------------------------------------------------------|
A |------------(9)------12T------------------------(7)---------(7)----|
D |-0-----------------------------------------------------------------|
A |-------------9-----------------------------------7-----------7-----|

(0:45)
E |------------0--------------12T--------------7------------------|
B |-----9h10------------------------12T-/-14-------7t-/-9---------|
F#|-----0---------------------------10t-\-7-----------------------|
D |----------------------9t---------------------------------14T---|
A |-(9)------------12T------------------------(7)-----------------|
D |---------------------------------------------------------------|
A |--9-----------------------------------------7------------------|

(0:47)
E |-------------------------------------------7-------0---9-------12-|
B |---------------------------0---9t--/-10--------7-----------0------|
F#|-7-p-5-----------------0------------------------------------------|
D |---------7t-/-9---11-----------14T-/-16---------------------------|
A |-----------------(9)-----------14T-/-16---(7)---------(7)---------|
D |-0----------------------------------------------------------------|
A |------------------9------------------------7-----------7----------|

(0:49)
E |------------0--------------12T--------------7------------------|
B |-----9h10------------------------12T-/-14-------7t-/-9---------|
F#|-----0---------------------------10t-\-7-----------------------|
D |----------------------9t---------------------------------14T---|
A |-(9)------------12T------------------------(7)-----------------|
D |---------------------------------------------------------------|
A |--9-----------------------------------------7------------------|

(0:52)
E |-----------7-----0---------------9t-/-12---14T---7-----------9-----|
B |---------5---9-------------------9t-/-12-------------7-----------0-|
F#|-5p3p5/7-------------------12T---------------------------0---------|
D |-------------------------------------------------------------------|
A |------------(9)------12T------------------------(7)---------(7)----|
D |-0-----------------------------------------------------------------|
A |-------------9-----------------------------------7-----------7-----|

(0:55)
E |------------0--------------12T--------------7------------------|
B |-----9h10------------------------12T-/-14-------7t-/-9---------|
F#|-----0---------------------------10t-\-7-----------------------|
D |----------------------9t---------------------------------14T---|
A |-(9)------------12T------------------------(7)-----------------|
D |---------------------------------------------------------------|
A |--9-----------------------------------------7------------------|

(0:57)
E |-------------------------------------------7-------0---9-------12-|
B |---------------------------0---9t--/-10--------7-----------0------|
F#|-7-p-5-----------------0------------------------------------------|
D |---------7t-/-9---11-----------14T-/-16---------------------------|
A |-----------------(9)-----------14T-/-16---(7)---------(7)---------|
D |-0----------------------------------------------------------------|
A |------------------9------------------------7-----------7----------|

(1:00)
E |------------0--------------12T--------------7----------------------|
B |-----9h10------------------------12T-/-14-------7t-/-9-------------|
F#|-----0---------------------------10t-\-7---------------------------|
D |----------------------9t---------------------------------14T-------|
A |-(9)------------12T------------------------(7)---------------------|
D |-------------------------------------------------------------------|
A |--9-----------------------------------------7----------------------|

(1:02)
E |-----------7-----0---------------9t-/-12---14T---7-----------9-----|
B |---------5---9-------------------9t-/-12-------------7-----------0-|
F#|-5p3p5/7-------------------12T---------------------------0---------|
D |-------------------------------------------------------------------|
A |------------(9)------12T------------------------(7)---------(7)----|
D |-0-----------------------------------------------------------------|
A |-------------9-----------------------------------7-----------7-----|



Part 3
(1:05)
E |--5---------------------------------5--------------------------12T---|
B |------5-/-7-p-0--------------12T--------5-/-7-p-0--------------------|
F#|------------------7t---12T--------------------------7t---12T---------|
D |---------------------------------------------------------------------|
A |-(5)-------------------------------(5)-------------------------------|
D |---------------------------------------------------------------------|
A |--5---------------------------------5--------------------------------|

(1:08)
E |--5---------------------------------5--------------------------12T---|
B |------5-/-7-p-0--------------12T--------5-/-7-p-0--------------------|
F#|------------------7t---12T--------------------------7t---12T---------|
D |---------------------------------------------------------------------|
A |-(5)-------------------------------(5)-------------------------------|
D |---------------------------------------------------------------------|
A |--5---------------------------------5--------------------------------|

(1:10)
E |-4-p-0---------------12T-/-14---4-p-0---------------12T-/-14-|
B |---------------------12T-/-14-----------------------12T-/-14-|
F#|---------5-\-3-p-0----------------------5-\-3-p-0------------|
D |-------------------------------------------------------------|
A |---------0------------------------------0--------------------|
D |-4------------------------------4----------------------------|
A |-------------------------------------------------------------|


(1:13) (The natural harmonic here is played by pulling off the 3rd fret with your left hand, 
        while touching the 12th fret with your right hand)
E |-4-p-0---------------12T-/-14---4-p-0--------------------------12T-|
B |---------------------12T-/-14--------------------------------------|
F#|---------5-\-3-p-0----------------------5-\-3---12N.H.---12T-------|
D |-------------------------------------------------------------------|
A |---------0------------------------------0----------------2t-/--4---|
D |-4------------------------------4----------------------------------|
A |-------------------------------------------------------------------|

(1:15)
E |--5---------------------------------5--------------------------12T---|
B |------5-/-7-p-0--------------12T--------5-/-7-p-0--------------------|
F#|------------------7t---12T--------------------------7t---12T---------|
D |---------------------------------------------------------------------|
A |-(5)-------------------------------(5)-------------------------------|
D |---------------------------------------------------------------------|
A |--5---------------------------------5--------------------------------|

(1:18)
E |--5---------------------------------5--------------------------12T---|
B |------5-/-7-p-0--------------12T--------5-/-7-p-0--------------------|
F#|------------------7t---12T--------------------------7t---12T---------|
D |---------------------------------------------------------------------|
A |-(5)-------------------------------(5)-------------------------------|
D |---------------------------------------------------------------------|
A |--5---------------------------------5--------------------------------|

(1:21)
E |-4-p-0---------------12T-/-14---4-p-0---------------12T-/-14-|
B |---------------------12T-/-14-----------------------12T-/-14-|
F#|---------5-\-3-p-0----------------------5-\-3-p-0------------|
D |-------------------------------------------------------------|
A |-------------------------------------------------------------|
D |-4-------0----------------------4-------0--------------------|
A |-------------------------------------------------------------|

(1:23)
E |-4-p-0---------------12T-/-14---4-p-0--------------------------12T-|
B |---------------------12T-/-14--------------------------------------|
F#|---------5-\-3-p-0----------------------5-\-3---12N.H.---12T-------|
D |-------------------------------------------------------------------|
A |---------0------------------------------0----------------2t-/--4---|
D |-4------------------------------4----------------------------------|
A |-------------------------------------------------------------------|



Part 4
(1:26)
E |-------------4------------------------12T---------------------------------|
B |-----2h3/5-------5-/-7-p-0---7t-\-5---------12t-\-10---9-h-10---------14T-|
F#|-----------------0-----------7t------------------------0------------------|
D |----------------------------------------------------------------14T-------|
A |--------------------------------------------------------------------------|
D |-0---------------0-------------------------------------0------------------|
A |--------------------------------------------------------------------------|

(1:29)
E |--7-----------7------------9--------12-------12-------10-------9-------|
B |------7-/-9-------9-/-10-------10--------9--------9--------9-------0---|
F#|-----------------------------------------------------------------------|
D |-----------------------------------------------------------------------|
A |-(7)-------------------------------------------------------------------|
D |------------------0-----------------0-----------------0----------------|
A |--7--------------------------------------------------------------------|

(1:32)
E |--------------9-/-12--------------------17---16---------------------------------|
B |-----9-/-10------------------12t-/-14-------------17-p-14--------------17T-/-19-|
F#|-----------------------------------------------------------------------17T-/-19-|
D |-----------------------16T----------------------------------16t-\-14------------|
A |-(9)----------0-----------------------------------------------------------------|
D |----------------------------------------0---------------------------------------|
A |--9-----------------------------------------------------------------------------|

(1:35)
E |--9----------------------------------5-----------------------------|
B |------9-/-10--------------7t---12T-------5-/-7-p-0-----------------|
F#|-----------------------------------------------------3t--------10T-|
D |---------------14T-/-16--------------------------------------------|
A |-(9)-----------14T-/-16-------------(5)-------------------9T-------|
D |-------------------------------------------------------------------|
A |--9----------------------------------5-----------------------------|



Part 5
(1:37)
E |--5---------------------------------5--------------------------12T---|
B |------5-/-7-p-0--------------12T--------5-/-7-p-0--------------------|
F#|------------------7t---12T--------------------------7t---12T---------|
D |---------------------------------------------------------------------|
A |-(5)-------------------------------(5)-------------------------------|
D |---------------------------------------------------------------------|
A |--5---------------------------------5--------------------------------|

(1:40)
E |--5---------------------------------5--------------------------12T---|
B |------5-/-7-p-0--------------12T--------5-/-7-p-0--------------------|
F#|------------------7t---12T--------------------------7t---12T---------|
D |---------------------------------------------------------------------|
A |-(5)-------------------------------(5)-------------------------------|
D |---------------------------------------------------------------------|
A |--5---------------------------------5--------------------------------|

(1:42)
E |-4-p-0---------------12T-/-14---4-p-0---------------12T-/-14-|
B |---------------------12T-/-14-----------------------12T-/-14-|
F#|---------5-\-3-p-0----------------------5-\-3-p-0------------|
D |-------------------------------------------------------------|
A |-------------------------------------------------------------|
D |-4-------0----------------------4-------0--------------------|
A |-------------------------------------------------------------|

(1:45)
E |-4-p-0---------------12T-/-14---4-p-0--------------------------12T-|
B |---------------------12T-/-14--------------------------------------|
F#|---------5-\-3-p-0----------------------5-\-3---12N.H.---12T-------|
D |-------------------------------------------------------------------|
A |---------0------------------------------0----------------2t-/--4---|
D |-4------------------------------4----------------------------------|
A |-------------------------------------------------------------------|

(1:47)
E |--5---------------------------------5--------------------------12T---|
B |------5-/-7-p-0--------------12T--------5-/-7-p-0--------------------|
F#|------------------7t---12T--------------------------7t---12T---------|
D |---------------------------------------------------------------------|
A |-(5)-------------------------------(5)-------------------------------|
D |---------------------------------------------------------------------|
A |--5---------------------------------5--------------------------------|

(1:50)
E |--5---------------------------------5--------------------------12T---|
B |------5-/-7-p-0--------------12T--------5-/-7-p-0--------------------|
F#|------------------7t---12T--------------------------7t---12T---------|
D |---------------------------------------------------------------------|
A |-(5)-------------------------------(5)-------------------------------|
D |---------------------------------------------------------------------|
A |--5---------------------------------5--------------------------------|

(1:53)
E |-4-p-0---------------12T-/-14---4-p-0---------------12T-/-14-|
B |---------------------12T-/-14-----------------------12T-/-14-|
F#|---------5-\-3-p-0----------------------5-\-3-p-0------------|
D |-------------------------------------------------------------|
A |-------------------------------------------------------------|
D |-4-------0----------------------4-------0--------------------|
A |-------------------------------------------------------------|

(1:55)
E |-4-p-0---------------12T-/-14---4-p-0--------------------------12T-|
B |---------------------12T-/-14--------------------------------------|
F#|---------5-\-3-p-0----------------------5-\-3---12N.H.---12T-------|
D |-------------------------------------------------------------------|
A |---------0------------------------------0----------------2t-/--4---|
D |-4------------------------------4----------------------------------|
A |-------------------------------------------------------------------|

(1:58)
E |--5---------------------------------5--------------------------12T---|
B |------5-/-7-p-0--------------12T--------5-/-7-p-0--------------------|
F#|------------------7t---12T--------------------------7t---12T---------|
D |---------------------------------------------------------------------|
A |-(5)-------------------------------(5)-------------------------------|
D |---------------------------------------------------------------------|
A |--5---------------------------------5--------------------------------|

(2:00)
E |--5---------------------------------5--------------------------12T---|
B |------5-/-7-p-0--------------12T--------5-/-7-p-0--------------------|
F#|------------------7t---12T--------------------------7t---12T---------|
D |---------------------------------------------------------------------|
A |-(5)-------------------------------(5)-------------------------------|
D |---------------------------------------------------------------------|
A |--5---------------------------------5--------------------------------|

(2:03)
E |-4-p-0---------------12T-/-14---4-p-0---------------12T-/-14-|
B |---------------------12T-/-14-----------------------12T-/-14-|
F#|---------5-\-3-p-0----------------------5-\-3-p-0------------|
D |-------------------------------------------------------------|
A |-------------------------------------------------------------|
D |-4-------0----------------------4-------0--------------------|
A |-------------------------------------------------------------|

(2:06)
E |-4-p-0---------------12T-/-14---4-p-0--------------------------12T-|
B |---------------------12T-/-14--------------------------------------|
F#|---------5-\-3-p-0----------------------5-\-3---12N.H.---12T-------|
D |-------------------------------------------------------------------|
A |---------0------------------------------0----------------2t-/--4---|
D |-4------------------------------4----------------------------------|
A |-------------------------------------------------------------------|

(2:08)
E |--5---------------------------------5--------------------------12T---|
B |------5-/-7-p-0--------------12T--------5-/-7-p-0--------------------|
F#|------------------7t---12T--------------------------7t---12T---------|
D |---------------------------------------------------------------------|
A |-(5)-------------------------------(5)-------------------------------|
D |---------------------------------------------------------------------|
A |--5---------------------------------5--------------------------------|

(2:11)
E |--5---------------------------------5--------------------------12T---|
B |------5-/-7-p-0--------------12T--------5-/-7-p-0--------------------|
F#|------------------7t---12T--------------------------7t---12T---------|
D |---------------------------------------------------------------------|
A |-(5)-------------------------------(5)-------------------------------|
D |---------------------------------------------------------------------|
A |--5---------------------------------5--------------------------------|

(2:13)
E |-4-p-0---------------12T-/-14---4-p-0---------------12T-/-14-|
B |---------------------12T-/-14-----------------------12T-/-14-|
F#|---------5-\-3-p-0----------------------5-\-3-p-0------------|
D |-------------------------------------------------------------|
A |-------------------------------------------------------------|
D |-4-------0----------------------4-------0--------------------|
A |-------------------------------------------------------------|

(2:16)
E |-4-p-0---------------12T-/-14---4-p-0--------------------------12T-|
B |---------------------12T-/-14--------------------------------------|
F#|---------5-\-3-p-0----------------------5-\-3---12N.H.---12T-------|
D |-------------------------------------------------------------------|
A |---------0------------------------------0----------------2t-/--4---|
D |-4------------------------------4----------------------------------|
A |-------------------------------------------------------------------|



Part 6
(2:18)
E |-------------4------------------------12T---------------------------------|
B |-----2h3/5-------5-/-7-p-0---7t-\-5---------12t-\-10---9-h-10---------14T-|
F#|-----------------0-----------7t------------------------0------------------|
D |----------------------------------------------------------------14T-------|
A |--------------------------------------------------------------------------|
D |-0---------------0-------------------------------------0------------------|
A |--------------------------------------------------------------------------|

(2:21)
E |--7-----------7------------9--------12-------12-------10-------9-------|
B |------7-/-9-------9-/-10-------10--------9--------9--------9-------0---|
F#|-----------------------------------------------------------------------|
D |-----------------------------------------------------------------------|
A |-(7)-------------------------------------------------------------------|
D |------------------0-----------------0-----------------0----------------|
A |--7--------------------------------------------------------------------|

(2:24)
E |--------------9-/-12--------------------17---16---------------------------------|
B |-----9-/-10------------------12t-/-14-------------17-p-14--------------17T-/-19-|
F#|-----------------------------------------------------------------------17T-/-19-|
D |-----------------------16T----------------------------------16t-\-14------------|
A |-(9)----------0-----------------------------------------------------------------|
D |----------------------------------------0---------------------------------------|
A |--9-----------------------------------------------------------------------------|

(2:27)
E |--9----------------------------------5----------------------------------|
B |------9-/-10--------------7t---12T-------5-/-7-p-0----------------------|
F#|-----------------------------------------------------3t--------10T-/-12-|
D |---------------14T-/-16----------------------------------------2t--/-4--|
A |-(9)-----------14T-/-16-------------(5)-------------------9T------------|
D |------------------------------------------------------------------------|
A |--9----------------------------------5----------------------------------|



Part 7
(2:30)
E |-------------0h2/5-12T------------------------5-------7-------12N.H.-------------|
B |-----------0---------------10t-12T/14-7---7-------7--------------------12-\-10---|
F#|-------0h3-------------12T-------------------------------------------------------|
D |-----0---------------------------------------------------------------------------|
A |---0-----------------------------------------------------------------------------|
D |-0------------------------------------0-------------------0----------------------|
A |---------------------------------------------------------------------------------|

(2:33)
E |---------------12N.H.-------------16---0-h-2-p-0---5p4p0-----0-----|
B |------9-/-10------------12-/-14--------------------------0h2-------|
F#|---------------------------------------------------------------3/5-|
D |-------------------------------------------------------------------|
A |-(9)---------------------------------------------------------------|
D |---------------------------------------0-----------0---------------|
A |--9----------------------------------------------------------------|

(2:36)
E |-------------0-------------------0---h2p0-----0-------2-------4-------5-------7-----------12N.H.-|
B |-----0-------------------0----------------2-------2-------2-------5-------5-------7N.H.----------|
F#|-7-------7-----------7-------7-------------------------------------------------------------------|
D |-------------------------------------------------------------------------------------------------|
A |-----------------------------------------(2)---------(2)---------(5)-----------------------------|
D |-4-------------------4---------------------------------------------------------------------------|
A |------------------------------------------2-----------2-----------5------------------------------|

(2:40)
E |-------------0h2/5-12T------------------------5-------7--------------------------|
B |-----------0---------------10t-12T/14-7---7-------7------------------------------|
F#|-------0h3-------------12T-------------------------------------------------------|
D |-----0---------------------------------------------------------------------------|
A |---0-----------------------------------------------------------------------------|
D |-0------------------------------------0------------------------------------------|
A |---------------------------------------------------------------------------------|

(2:43)
E |---------------12N.H.-------------16---0-h-2-p-0---5p4p0-----0-----|
B |------9-/-10------------12-/-14--------------------------0h2-------|
F#|---------------------------------------------------------------3/5-|
D |-------------------------------------------------------------------|
A |-(9)---------------------------------------------------------------|
D |---------------------------------------0-----------0---------------|
A |--9----------------------------------------------------------------|

(2:46)
E |-------------0-------------------0---h2p0-----0-------2-------4-------5-------7-----------12N.H.-|
B |-----0-------------------0----------------2-------2-------2-------5-------5-------7N.H.----------|
F#|-7-------7-----------7-------7-------------------------------------------------------------------|
D |-------------------------------------------------------------------------------------------------|
A |-----------------------------------------(2)---------(2)---------(5)-----------------------------|
D |-4-------------------4---------------------------------------------------------------------------|
A |------------------------------------------2-----------2-----------5------------------------------|

(2:50)
E |-------------0h2/5-12T------------------------5-------7-------12N.H.-------------|
B |-----------0---------------10t-12T/14-7---7-------7--------------------12-\-10---|
F#|-------0h3-------------12T-------------------------------------------------------|
D |-----0---------------------------------------------------------------------------|
A |---0-----------------------------------------------------------------------------|
D |-0------------------------------------0-------------------0----------------------|
A |---------------------------------------------------------------------------------|

(2:53)
E |---------------12N.H.-------------16---0-h-2-p-0---5p4p0-----0-----|
B |------9-/-10------------12-/-14--------------------------0h2-------|
F#|---------------------------------------------------------------3/5-|
D |-------------------------------------------------------------------|
A |-(9)---------------------------------------------------------------|
D |---------------------------------------0-----------0---------------|
A |--9----------------------------------------------------------------|

(2:55)
E |-------------0-------------------0---h2p0-----0-------2-------4-------5-------7-----------12N.H.-|
B |-----0-------------------0----------------2-------2-------2-------5-------5-------7N.H.----------|
F#|-7-------7-----------7-------7-------------------------------------------------------------------|
D |-------------------------------------------------------------------------------------------------|
A |-----------------------------------------(2)---------(2)---------(5)-----------------------------|
D |-4-------------------4---------------------------------------------------------------------------|
A |------------------------------------------2-----------2-----------5------------------------------|

(2:59)
E |-------------0h2/5-12T------------------------5-------7--------------------------|
B |-----------0---------------10t-12T/14-7---7-------7------------------------------|
F#|-------0h3-------------12T-------------------------------------------------------|
D |-----0---------------------------------------------------------------------------|
A |---0-----------------------------------------------------------------------------|
D |-0------------------------------------0------------------------------------------|
A |---------------------------------------------------------------------------------|

(3:03)
E |---------------12N.H.-------------16---0-h-2-p-0---5p4p0-----0-----|
B |------9-/-10------------12-/-14--------------------------0h2-------|
F#|---------------------------------------------------------------3/5-|
D |-------------------------------------------------------------------|
A |-(9)---------------------------------------------------------------|
D |---------------------------------------0-----------0---------------|
A |--9----------------------------------------------------------------|

(3:05)
E |-------------0-------------------0---h2p0-----0-------2-------4-|
B |-----0-------------------0----------------2-------2-------2-----|
F#|-7-------7-----------7-------7----------------------------------|
D |----------------------------------------------------------------|
A |-----------------------------------------(2)---------(2)--------|
D |-4-------------------4------------------------------------------|
A |------------------------------------------2-----------2---------|



Part 8
(3:08)
E |------5-------7-------5------5-------7-------5------5-------7-------5------5-------7-------5-|
B |--5-------5-------5------5-------5-------5------5-------5-------5------5-------5-------5-----|
F#|---------------------------------------------------------------------------------------------|
D |---------------------------------------------------------------------------------------------|
A |-(5)--------------------(5)--------------------(5)--------------------(5)--------------------|
D |---------------------------------------------------------------------------------------------|
A |--5----------------------5----------------------5----------------------5---------------------|

(3:13)
E |------5-------7-------5------5-------7-------5------5-------7-------5------5-------7-------5-|
B |--5-------5-------5------5-------5-------5------5-------5-------5------5-------5-------5-----|
F#|---------------------------------------------------------------------------------------------|
D |---------------------------------------------------------------------------------------------|
A |-(5)--------------------(5)--------------------(5)--------------------(5)--------------------|
D |---------------------------------------------------------------------------------------------|
A |--5----------------------5----------------------5----------------------5---------------------|



Part 9
(3:17)
E |-12---14---------------------------------12---14------------------|
B |-----------12---14---------------------------------12---14--------|
F#|---------------------14-/-15---------------------------------12---|
D |-------------------------------14---16----------------------------|
A |------------------------------------------------------------------|
D |-0---------------------------------------0------------------------|
A |------------------------------------------------------------------|

(3:19)
E |-12---14---------------------------------12---14------------------|
B |-----------12---14---------------------------------12---14--------|
F#|---------------------14-/-15---------------------------------12---|
D |-------------------------------14---16----------------------------|
A |------------------------------------------------------------------|
D |-0---------------------------------------0------------------------|
A |------------------------------------------------------------------|

(3:22)
E |-12---14---------------------------------12---14------------------|
B |-----------12---14---------------------------------12---14--------|
F#|---------------------14-/-15---------------------------------12---|
D |-------------------------------14---16----------------------------|
A |------------------------------------------------------------------|
D |-0---------------------------------------0------------------------|
A |------------------------------------------------------------------|

(3:24)
E |-12---14---------------------------------12---14------------------|
B |-----------12---14---------------------------------12---14--------|
F#|---------------------14-/-15---------------------------------12---|
D |-------------------------------14---16----------------------------|
A |------------------------------------------------------------------|
D |-0---------------------------------------0------------------------|
A |------------------------------------------------------------------|

(3:27)
E |-12---14---------------------------------12---14------------------|
B |-----------12---14---------------------------------12---14--------|
F#|---------------------14-/-15---------------------------------12---|
D |-------------------------------14---16----------------------------|
A |------------------------------------------------------------------|
D |-0---------------------------------------0------------------------|
A |------------------------------------------------------------------|

(3:29)
E |-12---14---------------------------------12---14------------------|
B |-----------12---14---------------------------------12---14--------|
F#|---------------------14-/-15---------------------------------12---|
D |-------------------------------14---16----------------------------|
A |------------------------------------------------------------------|
D |-0---------------------------------------0------------------------|
A |------------------------------------------------------------------|

(3:31)
E |-12---14---------------------------------12---14------------------|
B |-----------12---14---------------------------------12---14--------|
F#|---------------------14-/-15---------------------------------12---|
D |-------------------------------14---16----------------------------|
A |------------------------------------------------------------------|
D |-0---------------------------------------0------------------------|
A |------------------------------------------------------------------|

(3:34)
E |-12---14---------------------------------12---14------------------|
B |-----------12---14---------------------------------12---14--------|
F#|---------------------14-/-15---------------------------------12---|
D |-------------------------------14---16----------------------------|
A |------------------------------------------------------------------|
D |-0---------------------------------------0------------------------|
A |------------------------------------------------------------------|



Part 10
(3:36)
E |---------------------0------------0--------0-------0-----------0-----------0---------|
B |----------------10-------10---9----------------0-----------0-----------0-----------0-|
F#|-10-h-12-p-10-------------------------10---------------3-----------5-----------7-----|
D |-------------------------------------------------------------------------------------|
A |-------------------------------------------------------------------------------------|
D |-0-----------------------------------------------------0-----------0-----------------|
A |-------------------------------------------------------------------------------------|

(3:40)
E |---------------------0------------0--------0-------0-----------0---------|
B |----------------10-------10---9----------------0-----------0-----------0-|
F#|-10-h-12-p-10-------------------------10---------------3-----------5-----|
D |-------------------------------------------------------------------------|
A |-------------------------------------------------------------------------|
D |-0-----------------------------------------------------0-----------0-----|
A |-------------------------------------------------------------------------|

(3:43)
E |---------------------0------------0--------0-------0-----------0-----------0---------|
B |----------------10-------10---9----------------0-----------0-----------0-----------0-|
F#|-10-h-12-p-10-------------------------10---------------3-----------5-----------7-----|
D |-------------------------------------------------------------------------------------|
A |-------------------------------------------------------------------------------------|
D |-0-----------------------------------------------------0-----------0-----------------|
A |-------------------------------------------------------------------------------------|

(3:47)
E |---------------------0------------0--------0-------0-----------0---------|
B |----------------10-------10---9----------------0-----------0-----------0-|
F#|-10-h-12-p-10-------------------------10---------------3-----------5-----|
D |-------------------------------------------------------------------------|
A |-------------------------------------------------------------------------|
D |-0-----------------------------------------------------0-----------0-----|
A |-------------------------------------------------------------------------|

(3:50)
E |---------------------0------------0--------0-------0-----------0-----------0---------|
B |----------------10-------10---9----------------0-----------0-----------0-----------0-|
F#|-10-h-12-p-10-------------------------10---------------3-----------5-----------7-----|
D |-------------------------------------------------------------------------------------|
A |-------------------------------------------------------------------------------------|
D |-0-----------------------------------------------------0-----------0-----------------|
A |-------------------------------------------------------------------------------------|

(3:53)
E |---------------------0------------0--------0-------0-----------0---------|
B |----------------10-------10---9----------------0-----------0-----------0-|
F#|-10-h-12-p-10-------------------------10---------------3-----------5-----|
D |-------------------------------------------------------------------------|
A |-------------------------------------------------------------------------|
D |-0-----------------------------------------------------0-----------0-----|
A |-------------------------------------------------------------------------|

(3:57)
E |---------------------0------------0--------0-------0-----------0-----------0---------|
B |----------------10-------10---9----------------0-----------0-----------0-----------0-|
F#|-10-h-12-p-10-------------------------10---------------3-----------5-----------7-----|
D |-------------------------------------------------------------------------------------|
A |-------------------------------------------------------------------------------------|
D |-0-----------------------------------------------------0-----------0-----------------|
A |-------------------------------------------------------------------------------------|

(4:00)
E |---------------------0------------0--------0-------0-----------0-----------0-|
B |----------------10-------10---9----------------0-----------0-----------0-----|
F#|-10-h-12-p-10-------------------------10---------------3-----------5---------|
D |-----------------------------------------------------------------------------|
A |-----------------------------------------------------------------------------|
D |-0-----------------------------------------------------0-----------0---------|
A |-----------------------------------------------------------------------------|



Part 11
(4:04)
E |---------0-----------0-----------0-----------0-----------0-----------0-----------0-----------0---|
B |-----0-----------0-----------0-----------0-----------0-----------0-----------0-----------0-------|
F#|-7-----------7-----------7-----------7-----------7-----------7-----------7-----------7-----------|
D |-------------------------------------------------------------------------------------------------|
A |-------------------------------------------------------------------------------------------------|
D |-0-----------0-----------0-----------0-----------0-----------0-----------0-----------0-----------|
A |-------------------------------------------------------------------------------------------------|

(4:08)
E |---------0-----------0-----------0-----------0-----------0-----------0-----------0-----------0---|
B |-----7-----------7-----------7-----------7-----------7-----------7-----------5-----------5-------|
F#|-7-----------7-----------7-----------7-----------7-----------7-----------5-----------5-----------|
D |-------------------------------------------------------------------------------------------------|
A |-------------------------------------------------------------------------------------------------|
D |-0-----------0-----------0-----------0-----------0-----------0-----------0-----------0-----------|
A |-------------------------------------------------------------------------------------------------|

(4:13)
E |----------0------------0------------0------------0------------0------------0------------0------------0---|
B |-----10-----------10-----------10-----------10-----------10-----------10-----------10-----------10-------|
F#|-10-----------10-----------10-----------10-----------10-----------10-----------10-----------10-----------|
D |---------------------------------------------------------------------------------------------------------|
A |---------------------------------------------------------------------------------------------------------|
D |-0------------0------------0------------0------------0------------0------------0------------0------------|
A |---------------------------------------------------------------------------------------------------------|

(4:16)
E |---------12N.H--------12N.H--------12N.H--------12N.H--------12N.H--------12N.H--------12N.H--------12N.H-|
B |-----12-----------12-----------12-----------12-----------12-----------12-----------12-----------12--------|
F#|-10-----------10-----------10-----------10-----------10-----------10-----------10-----------10------------|
D |----------------------------------------------------------------------------------------------------------|
A |----------------------------------------------------------------------------------------------------------|
D |-0------------0------------0------------0------------0------------0------------0------------0-------------|
A |----------------------------------------------------------------------------------------------------------|



Part 12
(4:23)
E |------------0--------------12T--------------7------------------|
B |-----9h10------------------------12T-/-14-------7t-/-9---------|
F#|-----0---------------------------10t-\-7-----------------------|
D |----------------------9t---------------------------------14T---|
A |-(9)------------12T------------------------(7)-----------------|
D |---------------------------------------------------------------|
A |--9-----------------------------------------7------------------|

(4:26)
E |-----------7-----0---------------9t-/-12---14T---4-----------5------------------|
B |---------5---9-------------------9t-/-12-------------5-----------5-------12N.H.-|
F#|-5p3p5/7-------------------12T---------------------------0-----------0---12N.H.-|
D |--------------------------------------------------------------------------------|
A |------------(9)------12T--------------------------------------------------------|
D |-------------------------------------------------0-----------0------------------|
A |-0-----------9------------------------------------------------------------------|

************************************

| h        hammer-on
| p        pull-off
| /        slide up
| \        slide down
| t        left hand tap
| T        right hand tap
| N.H.     natural harmonic
| (#)      alternate note for 6 string guitars
 
************************************

            
            
Suggest correction
Creating personal tab
Creating personal tab
You can edit any tab online and save it as your Personal.

You can edit, replace or remove any tab part or add personal notes – all changes will be seen only by you.

Personal tabs can be accessed anytime from any device, even offline.
Learn more »
Give kudos to tab author, rate the tab!
1 2 3 4 5
comments
print report bad tab
3 comments total.
0 reply
armandogemei 10 Jun 06, 2017 05:38 PM

this is great, I love this song and I'm really glad the author made a 6 string version as I don't have a 7 currently. can you please transcribe sea dragon by covet as well

0 reply
oliviapi31415 10 Jun 29, 2017 10:21 PM, edited on June 30 2017, 02:40 am

I started on a guitar pro file to this, but it's really hard for me to make out the time signatures, so I gave up. If you wanna continue working on it, here's a dl link: http://www35.zippyshare.com/v/dOgRC8Dk/file.html

guest
You may want to rate the tab now too:
select rating
Wanna post a correction for this tab? Suggest correction