Oops, an error
Loading. Please wait.

Nautilus tab

by Covet
6,808 views 96 this week
3 commentsread comments
1 2 3 4 5
x 7
add to favorites
×
Save as Personal and add changes to this tab that will be seen only by you. Learn more ›
×
You can save this tab as Personal to edit and correct it or add notes. All changes will be seen only by you. Learn more »
launch autoscroll
font size
0
reset
how to read this tab
guitar tuner
edit
Autoscroll
slow
fast
+/-
esc
set tempo
stop
Tab by crazyguitarman3
Tuning: D A D F# A E
Yvette Young's solo video I got most of the tabs from: https://www.youtube.com/watch?v=-IoqzQbqitc
Yvette and her band Covet playing the final version: https://www.youtube.com/watch?v=eIyDGS6KBS8


[Part 1]

(0:11)
e |-------------------------------------------------------------|
A |-------0-----------------------------0-----------------------|
F#|-----5-----------------------0-----5-----------------------0-|
D |---0-----------------------0-----0-----------------------0---|
A |-------------------------------------------------------------|
D |-5-----------------------4-----5-----------------------4-----|


[Part 2] x8

(0:16)
e |--------------------------------5t-9T/-5p0------------------------------------------|
A |-------0---------------9T----------9T/----5t-/7p0-----------9p0-----12T-7p0-----12T-|
F#|-----5--p0-------7t-h8----------------------------7t-h8-10T-------------------------|
D |---0------h5/7p0----------7t-9T-----------12T-------------------12T---------12T-----|
A |------------------------------------------12T---------------------------------------|
D |-5------p0h5/7p0-9T--------------------5--------------------9-----------7-----------|


[Part 3] x4
(0:56)
e |-5p0--------5p0--------5p0--------5p0---------------------------------------------------------|
A |---------12T--------12T--------12T--------12T-7p0---------7p0---------7p0---------7p0---------|
F#|-----12T--------12T--------12T--------12T-------------12T---------12T---------12T---------12T-|
D |--------------------------------------------------12T---------12T---------12T---------12T-----|
A |----------------------------------------------------------------------------------------------|
D |-5----------5----------5----------5-----------7-----------7-----------7-----------7-----------|

(1:01) *On the final repetition, skip the last note (12T, 2nd string) and go into the next part*
e |-------------------------------------------------------------------------------------------------|
A |-4p0-----12T-4p0-----12T-4p0-----12T-4p0-----12T-5p0-----9T-5p0-----9T-5p0-----9T-5p0-----9T-----|
F#|-----12T---------12T---------12T---------12T-----------------------------------------------------|
D |-----------------------------------------------------9T---------9T---------9T---------9T---------|
A |-------------------------------------------------------------------------------------------------|
D |-4-----------4-----------4-----------4-----------5-----------5-----------5-----------5-----------|


[Part 4] x4

(1:37)
e |-----------5t-----------5t----5t-----------5t----5t----5t-----------5t----5t----5t----9T-|
A |-----------9T-----------9T----9T-----------9T----9T----7T-----------9T----9T----7T----9T-|
F#|-----------------------------------------------------------------------------------------|
D |-----7t-9T--------7t-9T-------9T-----7t-9T-------9T----7T-----7t-9T-------9T----7T-------|
A |---------------------------5t-----------------5t----5t-----------------5t----5t----5t----|
D |-0h5----------0h5----------------0h5----------------------0h5----------------------------|

(1:42)
e |-----------5t-----------5t----5t-----------5t----5t----5t-----------5t----5t----5t----9T-|
A |-----------9T-----------9T----9T-----------9T----9T----7T-----------9T----9T----7T----9T-|
F#|-----------------------------------------------------------------------------------------|
D |-----7t-9T--------7t-9T-------9T-----7t-9T-------9T----7T-----7t-9T-------9T----7T-------|
A |---------------------------5t-----------------5t----5t-----------------5t----5t----5t----|
D |-0h5----------0h5----------------0h5----------------------0h5----------------------------|

(1:47)
e |----------------5t-7T----------------5t-9T----------------5t--------------------12T/14---|
A |----------------------------------------------------------------9T/12-----------------12T|
F#|-----------7T/8-----------------7T/8-----------------7T/8-------------------12T----------|
D |-----4t-7T----------------4t-7T----------------4t-7T---------9T---/12-7t-h9--------------|
A |-0h2------------------0h2------------------0h2-------------------------------------------|
D |-----------------------------------------------------------------------------------------|


[Part 5a]

(2:38)
e |---------------------------------12T----------10------------------------------5/7--------|
A |----5p0----5t/7p0-9t---12T-9t-7t-----------------9t-12T--------7t-9T------0-------7t\5p0-|
F#|---5---------------------------------12T-8t--------------------------5t-----5------------|
D |--0-----9T-------------12T------------------------------12T/14----9T---------------------|
A |-----------5t/7p0-----------------------------------------------------------------7t\5p0-|
D |-5----------------9t-------9t-7t--------------9----------------7t----5t------------------|

(2:42)
e |-------------------------------------------------------------------------------|
A |---------9-----------------12T---p7p0------9T--------9T-------------------7T/9-|
F#|--------------------------------------5t--------5t----------------2t-----------|
D |-----0-------0-------0-12T-------p0--------9T--------9T----------------7T------|
A |--------------------------------------------------------------0----------------|
D |-9---------------7-----------------p0-5t--------5t------------0---h2-----------|


[Part 5b]

(2:45)
e |---------------------------------12T----------10------------------------------5/7--------|
A |----5p0----5t/7p0-9t---12T-9t-7t-----------------9t-12T--------7t-9T------0-------7t\5p0-|
F#|---5---------------------------------12T-8t--------------------------5t-----5------------|
D |--0-----9T-------------12T------------------------------12T/14----9T---------------------|
A |-----------5t/7p0-----------------------------------------------------------------7t\5p0-|
D |-5----------------9t-------9t-7t--------------9----------------7t----5t------------------|

(2:50)
e |------------------------------------------------------------------------------------------|
A |---------9-----------------12T---p7p0------9T--------9T-------------------7T/9-14T-p9p7p0-|
F#|--------------------------------------5t--------5t----------------2t----------------------|
D |-----0-------0-------0-12T-------p0--------9T--------9T----------------7T-----------------|
A |--------------------------------------------------------------0---------------------------|
D |-9---------------7-----------------p0-5t--------5t------------0---h2----------------------|


[Part 5c]

(same thing as part 5a)

(2:54)
e |---------------------------------12T----------10------------------------------5/7--------|
A |----5p0----5t/7p0-9t---12T-9t-7t-----------------9t-12T--------7t-9T------0-------7t\5p0-|
F#|---5---------------------------------12T-8t--------------------------5t-----5------------|
D |--0-----9T-------------12T------------------------------12T/14----9T---------------------|
A |-----------5t/7p0-----------------------------------------------------------------7t\5p0-|
D |-5----------------9t-------9t-7t--------------9----------------7t----5t------------------|

(2:59)
e |-------------------------------------------------------------------------------|
A |---------9-----------------12T---p7p0------9T--------9T-------------------7T/9-|
F#|--------------------------------------5t--------5t----------------2t-----------|
D |-----0-------0-------0-12T-------p0--------9T--------9T----------------7T------|
A |--------------------------------------------------------------0----------------|
D |-9---------------7-----------------p0-5t--------5t------------0---h2-----------|


[Part 5d]

(3:02)
e |---------------------------------12T----------10------------------------------5/7--------|
A |----5p0----5t/7p0-9t---12T-9t-7t-----------------9t-12T--------7t-9T------0-------7t\5p0-|
F#|---5---------------------------------12T-8t--------------------------5t-----5------------|
D |--0-----9T-------------12T------------------------------12T/14----9T---------------------|
A |-----------5t/7p0-----------------------------------------------------------------7t\5p0-|
D |-5----------------9t-------9t-7t--------------9----------------7t----5t------------------|

(3:07)
e |------------------------------|
A |---------9-------------7t-12T-|
F#|------------------------------|
D |-----0---------0-12Tp0--------|
A |------------------------------|
D |-9-----------7----------------|


[Part 6a] x4

(3:08)
e |-----------------------------------------------------------------------------|
A |-5t-----p0----12T---5t-----p0----12T---5t-----p0----12T---5t-----p0----12T---|
F#|-12T-p0----h5-------12T-p0----h5-------12T-p0----h5-------12T-p0----h5-------|
D |-----------------------------------------------------------------------------|
A |-----------------------------------------------------------------------------|
D |-5t-----------------5t-----------------5t-----------------5t-----------------|

(3:11)
e |-----------------------------------------------------------------------------|
A |-7t-----p0----12T---7t-----p0----12T---7t-----p0----12T---7t-----p0----12T---|
F#|-12T-p0----h7-------12T-p0----h7-------12T-p0----h7-------12T-p0----h7-------|
D |-----------------------------------------------------------------------------|
A |-----------------------------------------------------------------------------|
D |-7t-----------------7t-----------------7t-----------------7t-----------------|

(3:13)
e |---------------9t-p0---------------9t-p0---------------9t-p0---------------9t-p0-|
A |-9t-----p0-12T-------9t-----p0-12T-------9t-----p0-12T-------9t-----p0-12T-------|
F#|-12T-p0--------------12T-p0--------------12T-p0--------------12T-p0--------------|
D |---------------------------------------------------------------------------------|
A |---------------------------------------------------------------------------------|
D |-9t------------------9t------------------9t------------------9t------------------|

(3:15)
e |-----------------------------------------------------------------------------|
A |-5t-----p0----12T---5t-----p0----10T---5t-----p0----12T---5t-----p0----------|
F#|-12T-p0----h5-------12T-p0----h5-------12T-p0----h5-------12T-p0----h5-10T---|
D |-----------------------------------------------------------------------------|
A |-----------------------------------------------------------------------------|
D |-5t-----------------5t-----------------5t-----------------5t-----------------|


[Part 6b] x2

(3:46)
e |-----------------------------------------------------------------------------|
A |-5t-----p0----12T---5t-----p0----10T---5t-----p0----12T---5t-----p0----------|
F#|-12T-p0----h5-------12T-p0----h5-------12T-p0----h5-------12T-p0----h5-10T---|
D |-----------------------------------------------------------------------------|
A |-----------------------------------------------------------------------------|
D |-5t-----------------5t-----------------5t-----------------5t-----------------|


[Part 6c]

(3:51) *starts slowing down tempo*
e |-------------------------------------------------------------------------------|
A |-5t-----p0----------5t-----p0----------5t-----p0----------5t-----p0------------|
F#|-12T-p0----h5-10T---12T-p0----h5-10T---12T-p0----h5-10T---12T-p0----h5-10T---5-|
D |-----------------------------------------------------------------------------0-|
A |-------------------------------------------------------------------------------|
D |-5t-----------------5t-----------------5t-----------------5t-----------------5-|


***********************************
| h     hammer-on
| p     pull-off
| /     slide up
| \     slide down
| t     left hand tap
| T     right hand tap
***********************************

            
            
Suggest correction
Creating personal tab
Creating personal tab
You can edit any tab online and save it as your Personal.

You can edit, replace or remove any tab part or add personal notes – all changes will be seen only by you.

Personal tabs can be accessed anytime from any device, even offline.
Learn more »
comments
print report bad tab
3 comments total.
0 reply
Joninini 14 Nov 27, 2016 09:31 AM, edited at 04:01 pm

Hey,I just wanted to add that at the part starting at 1:01 she taps "f#" on the 2nd and "b" at the 4th string instead of "A" and "D".e |------------------------------------------------|A |5p0-----9T-5p0-----9T-5p0-----9T-5p0-----9T----|F#|------------------------------------------------|D |----9T---------9T---------9T---------9T---------|A |------------------------------------------------|D |5-----------5-----------5-----------5-----------|Otherwise awesome job so far! Thanks for the effort!

0 reply
Joninini 14 Nov 27, 2016 11:06 AM

Hey,I just wanted to add that at the part starting at 1:01 she taps "f#" on the 2nd and "b" at the 4th string instead of "A" and "D".

e |------------------------------------------------|
A |5p0-----9T-5p0-----9T-5p0-----9T-5p0-----9T-----|
F#|------------------------------------------------|
D |----9T---------9T---------9T---------9T---------|
A |------------------------------------------------|
D |5----------5----------5----------5--------------|

Otherwise awesome job so far! Thanks for the effort!

0 reply
serpent.dragon.3.14 10 Sep 13, 2017 09:46 AM

man! thats perfect!

guest
You may want to rate the tab now too:
select rating
Wanna post a correction for this tab? Suggest correction