Oops, an error
Loading. Please wait.

Sea Dragon tab

by Covet
313 views 72 this week
no commentswrite comment
1 2 3 4 5
3 more votes to show rating
add to favorites
×
Save as Personal and add changes to this tab that will be seen only by you. Learn more ›
×
You can save this tab as Personal to edit and correct it or add notes. All changes will be seen only by you. Learn more »
launch autoscroll
font size
0
reset
how to read this tab
guitar tuner
edit
Autoscroll
slow
fast
+/-
esc
set tempo
stop
tabbed by: crazyguitarman3
7th string will be tabbed, but alternate notes (octave higher) for 6 string guitars will be in parenthesis

[Part 1]
(0:00)
E |---------2-----------2---0--------------------------------------------12N.H.-|
B |-----0---0-------0---0---0--------------------------------------------12N.H.-|
F#|-3-----------3---------------3-/-7---9---7---------------12N.H.--------------|
D |---------------------------------9---9---9---7-/-9-p-0---12N.H.--------------|
A |---------------------------------------------7-/-9-p-0-----------------------|
D |-5-----------5-------------------0-------------------------------------------|
A |-----------------------------------------------------------------------------|

(0:00)
E |---------2-----------2---0--------------------------------------------12N.H.-|
B |-----0---0-------0---0---0--------------------------------------------12N.H.-|
F#|-3-----------3---------------3-/-7---9---7---------------12N.H.--------------|
D |---------------------------------9---9---9---7-/-9-p-0---12N.H.--------------|
A |---------------------------------------------7-/-9-p-0-----------------------|
D |-5-----------5-------------------0-------------------------------------------|
A |-----------------------------------------------------------------------------|

(0:00)
E |---------2-----------2---0--------------------------------------------12N.H.-|
B |-----0---0-------0---0---0--------------------------------------------12N.H.-|
F#|-3-----------3---------------3-/-7---9---7---------------12N.H.--------------|
D |---------------------------------9---9---9---7-/-9-p-0---12N.H.--------------|
A |---------------------------------------------7-/-9-p-0-----------------------|
D |-5-----------5-------------------0-------------------------------------------|
A |-----------------------------------------------------------------------------|

(0:00)
E |---------2-----------2---0--------------------------------------------12N.H.-|
B |-----0---0-------0---0---0--------------------------------------------12N.H.-|
F#|-3-----------3---------------3-/-7---9---7---------------12N.H.--------------|
D |---------------------------------9---9---9---7-/-9-p-0---12N.H.--------------|
A |---------------------------------------------7-/-9-p-0-----------------------|
D |-5-----------5-------------------0-------------------------------------------|
A |-----------------------------------------------------------------------------|

(0:00)
E |---------2-----------2---0--------------------------------------------12N.H.-|
B |-----0---0-------0---0---0--------------------------------------------12N.H.-|
F#|-3-----------3---------------3-/-7---9---7---------------12N.H.--------------|
D |---------------------------------9---9---9---7-/-9-p-0---12N.H.--------------|
A |---------------------------------------------7-/-9-p-0-----------------------|
D |-5-----------5-------------------0-------------------------------------------|
A |-----------------------------------------------------------------------------|

(0:00)
E |---------2-----------2---0--------------------------------------------12N.H.-|
B |-----0---0-------0---0---0--------------------------------------------12N.H.-|
F#|-3-----------3---------------3-/-7---9---7---------------12N.H.--------------|
D |---------------------------------9---9---9---7-/-9-p-0---12N.H.--------------|
A |---------------------------------------------7-/-9-p-0-----------------------|
D |-5-----------5-------------------0-------------------------------------------|
A |-----------------------------------------------------------------------------|

(0:00)
E |---------2-----------2---0--------------------------------------------12N.H.-|
B |-----0---0-------0---0---0--------------------------------------------12N.H.-|
F#|-3-----------3---------------3-/-7---9---7---------------12N.H.--------------|
D |---------------------------------9---9---9---7-/-9-p-0---12N.H.--------------|
A |---------------------------------------------7-/-9-p-0-----------------------|
D |-5-----------5-------------------0-------------------------------------------|
A |-----------------------------------------------------------------------------|

(0:00)
E |---------2-----------2---0--------------------------------------------12N.H.-|
B |-----0---0-------0---0---0--------------------------------------------12N.H.-|
F#|-3-----------3---------------3-/-7---9---7---------------12N.H.--------------|
D |---------------------------------9---9---9---7-/-9-p-0---12N.H.--------------|
A |---------------------------------------------7-/-9-p-0-----------------------|
D |-5-----------5-------------------0-------------------------------------------|
A |-----------------------------------------------------------------------------|

(0:00)
E |---------2-----------2---0--------------------------------------------12N.H.-|
B |-----0---0-------0---0---0--------------------------------------------12N.H.-|
F#|-3-----------3---------------3-/-7---9---7---------------12N.H.--------------|
D |---------------------------------9---9---9---7-/-9-p-0---12N.H.--------------|
A |---------------------------------------------7-/-9-p-0-----------------------|
D |-5-----------5-------------------0-------------------------------------------|
A |-----------------------------------------------------------------------------|

(0:00)
E |---------2-----------2---0--------------------------------------------12N.H.-|
B |-----0---0-------0---0---0--------------------------------------------12N.H.-|
F#|-3-----------3---------------3-/-7---9---7---------------12N.H.--------------|
D |---------------------------------9---9---9---7-/-9-p-0---12N.H.--------------|
A |---------------------------------------------7-/-9-p-0-----------------------|
D |-5-----------5-------------------0-------------------------------------------|
A |-----------------------------------------------------------------------------|

[Part 2]
(0:00)
E |----------------------------------------------------------------------------------|
B |--12---12---12---12---12---12---12---12---12---12---12---12---12---12---12---12---|
F#|--12---12---12---12---12---12---12---12---12---12---12---12---12---12---12---12---|
D |--0----0----0----0----0----0----0----0----0----0----0----0----0----0----0----0----|
A |-(10)-(10)-(10)-(10)-(10)-(10)-(10)-(10)-(10)-(10)-(10)-(10)-(10)-(10)-(10)-(10)--|
D |--0----0----0----0----0----0----0----0----0----0----0----0----0----0----0----0----|
A |--10---10---10---10---10---10---10---10---10---10---10---10---10---10---10---10---|

(0:00)
E |--12---12---12---12---12---12---12---12---14---14---14---14---14---14---14---14--|
B |--12---12---12---12---12---12---12---12---12---12---12---12---12---12---12---12--|
F#|--x----x----x----x----x----x----x----x----x----x----x----x----x----x----x----x---|
D |--0----0----0----0----0----0----0----0----0----0----0----0----0----0----0----0---|
A |-(10)-(10)-(10)-(10)-(10)-(10)-(10)-(10)-(10)-(10)-(10)-(10)-(10)-(10)-(10)-(10)-|
D |--0----0----0----0----0----0----0----0----0----0----0----0----0----0----0----0---|
A |--10---10---10---10---10---10---10---10---10---10---10---10---10---10---10---10--|

[Part 3]
(0:00)
E |-------------------------------------------------------------------10---------|
B |---------------12p0--------------12p0--------------12p0----12/14p0----10------|
F#|--12---12---12------12---12---12------12---12---12------12---------------12p0-|
D |-----0----0------------0----0------------0----0-------------------------------|
A |-(10)-(10)-(10)----(10)-(10)-(10)----(10)-(10)-(10)----(12)-------------------|
D |-------------------------------------------------------------------9----------|
A |--10---10---10------10---10---10------10---10---10------12--------------------|

(0:00)
E |-------------------------------------------------------------------10---------|
B |---------------12p0--------------12p0--------------12p0----12/14p0----10------|
F#|--12---12---12------12---12---12------12---12---12------12---------------12p0-|
D |-----0----0------------0----0------------0----0-------------------------------|
A |-(10)-(10)-(10)----(10)-(10)-(10)----(10)-(10)-(10)----(12)-------------------|
D |-------------------------------------------------------------------9----------|
A |--10---10---10------10---10---10------10---10---10------12--------------------|

(0:00)
E |-------------------------------------------------------------------10---------|
B |---------------12p0--------------12p0--------------12p0----12/14p0----10------|
F#|--12---12---12------12---12---12------12---12---12------12---------------12p0-|
D |-----0----0------------0----0------------0----0-------------------------------|
A |-(10)-(10)-(10)----(10)-(10)-(10)----(10)-(10)-(10)----(12)-------------------|
D |-------------------------------------------------------------------9----------|
A |--10---10---10------10---10---10------10---10---10------12--------------------|

(0:00)
E |-------------------------------------------------------------------10---------|
B |---------------12p0--------------12p0--------------12p0----12/14p0----10------|
F#|--12---12---12------12---12---12------12---12---12------12---------------12p0-|
D |-----0----0------------0----0------------0----0-------------------------------|
A |-(10)-(10)-(10)----(10)-(10)-(10)----(10)-(10)-(10)----(12)-------------------|
D |-------------------------------------------------------------------9----------|
A |--10---10---10------10---10---10------10---10---10------12--------------------|

(0:00)
E |-------------------------------------------------------------------10---------|
B |---------------12p0--------------12p0--------------12p0----12/14p0----10------|
F#|--12---12---12------12---12---12------12---12---12------12---------------12p0-|
D |-----0----0------------0----0------------0----0-------------------------------|
A |-(10)-(10)-(10)----(10)-(10)-(10)----(10)-(10)-(10)----(12)-------------------|
D |-------------------------------------------------------------------9----------|
A |--10---10---10------10---10---10------10---10---10------12--------------------|

(0:00)
E |-------------------------------------------------------------------10---------|
B |---------------12p0--------------12p0--------------12p0----12/14p0----10------|
F#|--12---12---12------12---12---12------12---12---12------12---------------12p0-|
D |-----0----0------------0----0------------0----0-------------------------------|
A |-(10)-(10)-(10)----(10)-(10)-(10)----(10)-(10)-(10)----(12)-------------------|
D |-------------------------------------------------------------------9----------|
A |--10---10---10------10---10---10------10---10---10------12--------------------|

(0:00)
E |-------------------------------------------------------------------10---------|
B |---------------12p0--------------12p0--------------12p0----12/14p0----10------|
F#|--12---12---12------12---12---12------12---12---12------12---------------12p0-|
D |-----0----0------------0----0------------0----0-------------------------------|
A |-(10)-(10)-(10)----(10)-(10)-(10)----(10)-(10)-(10)----(12)-------------------|
D |-------------------------------------------------------------------9----------|
A |--10---10---10------10---10---10------10---10---10------12--------------------|

(0:00)
E |-------------------------------------------------------------------10---------|
B |---------------12p0--------------12p0--------------12p0----12/14p0----10------|
F#|--12---12---12------12---12---12------12---12---12------12---------------12p0-|
D |-----0----0------------0----0------------0----0-------------------------------|
A |-(10)-(10)-(10)----(10)-(10)-(10)----(10)-(10)-(10)----(12)-------------------|
D |-------------------------------------------------------------------9----------|
A |--10---10---10------10---10---10------10---10---10------12--------------------|

[Part 4]
(0:00)
E |---------------------14-12----12----10----10----10----10-9h10p9----------0-------0-----|
B |------------------12-------10----10----10----10----0------------10-7p0-3---3h0-3---3h0-|
F#|------------10/12------------------------------------------------------3---3h0-3---3h0-|
D |---------12----------------------------------------------------------------------------|
A |---12/14---------------(10)--(10)--(10)--(10)------------------------------------------|
D |-9----------------------------------------------9-----9------------0---5---5---5---5---|
A |------------------------10----10----10----10-------------------------------------------|

(0:00)
E |---------------------14-12----12----10----10----10----10-9h10p9----------0-------0-----|
B |------------------12-------10----10----10----10----0------------10-7p0-3---3h0-3---3h0-|
F#|------------10/12------------------------------------------------------3---3h0-3---3h0-|
D |---------12----------------------------------------------------------------------------|
A |---12/14---------------(10)--(10)--(10)--(10)------------------------------------------|
D |-9----------------------------------------------9-----9------------0---5---5---5---5---|
A |------------------------10----10----10----10-------------------------------------------|

(0:00)
E |---------------------14-12----12----10----10----10----10-9h10p9----------0-------0-----|
B |------------------12-------10----10----10----10----0------------10-7p0-3---3h0-3---3h0-|
F#|------------10/12------------------------------------------------------3---3h0-3---3h0-|
D |---------12----------------------------------------------------------------------------|
A |---12/14---------------(10)--(10)--(10)--(10)------------------------------------------|
D |-9----------------------------------------------9-----9------------0---5---5---5---5---|
A |------------------------10----10----10----10-------------------------------------------|

(0:00)
E |---------------------14-12----12----10----10----10----10-9h10p9----------0-------0-----|
B |------------------12-------10----10----10----10----0------------10-7p0-3---3h0-3---3h0-|
F#|------------10/12------------------------------------------------------3---3h0-3---3h0-|
D |---------12----------------------------------------------------------------------------|
A |---12/14---------------(10)--(10)--(10)--(10)------------------------------------------|
D |-9----------------------------------------------9-----9------------0---5---5---5---5---|
A |------------------------10----10----10----10-------------------------------------------|

[Part 5]
(0:00)
E |-------------------------------------------------------------------10---------|
B |---------------12p0--------------12p0--------------12p0----12/14p0----10------|
F#|--12---12---12------12---12---12------12---12---12------12---------------12p0-|
D |-----0----0------------0----0------------0----0-------------------------------|
A |-(10)-(10)-(10)----(10)-(10)-(10)----(10)-(10)-(10)----(12)-------------------|
D |-------------------------------------------------------------------9----------|
A |--10---10---10------10---10---10------10---10---10------12--------------------|

(0:00)
E |-------------------------------------------------------------------10---------|
B |---------------12p0--------------12p0--------------12p0----12/14p0----10------|
F#|--12---12---12------12---12---12------12---12---12------12---------------12p0-|
D |-----0----0------------0----0------------0----0-------------------------------|
A |-(10)-(10)-(10)----(10)-(10)-(10)----(10)-(10)-(10)----(12)-------------------|
D |-------------------------------------------------------------------9----------|
A |--10---10---10------10---10---10------10---10---10------12--------------------|

(0:00)
E |-------------------------------------------------------------------10---------|
B |---------------12p0--------------12p0--------------12p0----12/14p0----10------|
F#|--12---12---12------12---12---12------12---12---12------12---------------12p0-|
D |-----0----0------------0----0------------0----0-------------------------------|
A |-(10)-(10)-(10)----(10)-(10)-(10)----(10)-(10)-(10)----(12)-------------------|
D |-------------------------------------------------------------------9----------|
A |--10---10---10------10---10---10------10---10---10------12--------------------|

(0:00)
E |-------------------------------------------------------------------10---------|
B |---------------12p0--------------12p0--------------12p0----12/14p0----10------|
F#|--12---12---12------12---12---12------12---12---12------12---------------12p0-|
D |-----0----0------------0----0------------0----0-------------------------------|
A |-(10)-(10)-(10)----(10)-(10)-(10)----(10)-(10)-(10)----(12)-------------------|
D |-------------------------------------------------------------------9----------|
A |--10---10---10------10---10---10------10---10---10------12--------------------|

[Part 6]
(0:00)
E |---------------------14-12----12----10----10----10----10-9h10p9----------0-------0-----|
B |------------------12-------10----10----10----10----0------------10-7p0-3---3h0-3---3h0-|
F#|------------10/12------------------------------------------------------3---3h0-3---3h0-|
D |---------12----------------------------------------------------------------------------|
A |---12/14---------------(10)--(10)--(10)--(10)------------------------------------------|
D |-9----------------------------------------------9-----9------------0---5---5---5---5---|
A |------------------------10----10----10----10-------------------------------------------|

(0:00)
E |---------------------14-12----12----10----10----10----10-9h10p9----------0-------0-----|
B |------------------12-------10----10----10----10----0------------10-7p0-3---3h0-3---3h0-|
F#|------------10/12------------------------------------------------------3---3h0-3---3h0-|
D |---------12----------------------------------------------------------------------------|
A |---12/14---------------(10)--(10)--(10)--(10)------------------------------------------|
D |-9----------------------------------------------9-----9------------0---5---5---5---5---|
A |------------------------10----10----10----10-------------------------------------------|

(0:00)
E |---------------------14-12----12----10----10----10----10-9h10p9----------0-------0-----|
B |------------------12-------10----10----10----10----0------------10-7p0-3---3h0-3---3h0-|
F#|------------10/12------------------------------------------------------3---3h0-3---3h0-|
D |---------12----------------------------------------------------------------------------|
A |---12/14---------------(10)--(10)--(10)--(10)------------------------------------------|
D |-9----------------------------------------------9-----9------------0---5---5---5---5---|
A |------------------------10----10----10----10-------------------------------------------|

(0:00)
E |---------------------14-12----12----10----10----10----10-9h10p9----------0-------0-----|
B |------------------12-------10----10----10----10----0------------10-7p0-3---3h0-3---3h0-|
F#|------------10/12------------------------------------------------------3---3h0-3---3h0-|
D |---------12----------------------------------------------------------------------------|
A |---12/14---------------(10)--(10)--(10)--(10)------------------------------------------|
D |-9----------------------------------------------9-----9------------0---5---5---5---5---|
A |------------------------10----10----10----10-------------------------------------------|

[Part 7]
(0:00)
E |------------------------------------------------------|
B |-------0-------------------------10t-p0--------15T/17-|
F#|-----0--------------------12T-----------10t/12-15T/17-|
D |---0-----7t/9-----12T---------12T---------------------|
A |---------7t/9---------12T---------------12T/14--------|
D |-5------------12T-----9t------------------------------|
A |------------------------------------------------------|

(0:00)
E |-7---0---5-----------2-------------------------------------------------------|
B |---7---0---0-----------3-2------------------3\2------------------------------|
F#|---------------------------3----------5-3-5-----3----------------------------|
D |-------------12T/14----------2/4------------------2/4------------7t/9-12T/14-|
A |-------------12T/14-(2)----------9T\7--------------------5t/7-9T-------------|
D |-5-------------------------------9T\7-5---------------9T---------------------|
A |---------------------2-------------------------------------------------------|

(0:00)
E |-------0------0-----------0------0------------0------0---------------10------------|
B |-----0------0---10p0----0------0---10h12----0------0---10p0----10-------0---12N.H.-|
F#|--10-----10----------10-----10-----------10-----10----------10----10------0-12N.H.-|
D |-----------------------------------------------------------------------------------|
A |-(10)---(10)--------(10)---(10)---------(10)---(10)--------------------------------|
D |------------------------------------------------------------9-----9----------------|
A |--10-----10----------10-----10-----------10-----10---------------------------------|

(0:00)
E |------------------------------------------------------|
B |-------0-------------------------10t-p0--------15T/17-|
F#|-----0--------------------12T-----------10t/12-15T/17-|
D |---0-----7t/9-----12T---------12T---------------------|
A |---------7t/9---------12T---------------12T/14--------|
D |-5------------12T-----9t------------------------------|
A |------------------------------------------------------|

(0:00)
E |-7---0---5-----------2-------------------------------------------------------|
B |---7---0---0-----------3-2------------------3\2------------------------------|
F#|---------------------------3----------5-3-5-----3----------------------------|
D |-------------12T/14----------2/4------------------2/4------------7t/9-12T/14-|
A |-------------12T/14-(2)----------9T\7--------------------5t/7-9T-------------|
D |-5-------------------------------9T\7-5---------------9T---------------------|
A |---------------------2-------------------------------------------------------|

(0:00)
E |-------0------0-----------0------0------------0------0---------------10------------|
B |-----0------0---10p0----0------0---10h12----0------0---10p0----10-------0---12N.H.-|
F#|--10-----10----------10-----10-----------10-----10----------10----10------0-12N.H.-|
D |-----------------------------------------------------------------------------------|
A |-(10)---(10)--------(10)---(10)---------(10)---(10)--------------------------------|
D |------------------------------------------------------------9-----9----------------|
A |--10-----10----------10-----10-----------10-----10---------------------------------|

(0:00)
E |------------------------------------------------------|
B |-------0-------------------------10t-p0--------15T/17-|
F#|-----0--------------------12T-----------10t/12-15T/17-|
D |---0-----7t/9-----12T---------12T---------------------|
A |---------7t/9---------12T---------------12T/14--------|
D |-5------------12T-----9t------------------------------|
A |------------------------------------------------------|

(0:00)
E |-7---0---5-----------2-------------------------------------------------------|
B |---7---0---0-----------3-2------------------3\2------------------------------|
F#|---------------------------3----------5-3-5-----3----------------------------|
D |-------------12T/14----------2/4------------------2/4------------7t/9-12T/14-|
A |-------------12T/14-(2)----------9T\7--------------------5t/7-9T-------------|
D |-5-------------------------------9T\7-5---------------9T---------------------|
A |---------------------2-------------------------------------------------------|

(0:00)
E |-------0------0-----------0------0------------0------0---------------10------------|
B |-----0------0---10p0----0------0---10h12----0------0---10p0----10-------0---12N.H.-|
F#|--10-----10----------10-----10-----------10-----10----------10----10------0-12N.H.-|
D |-----------------------------------------------------------------------------------|
A |-(10)---(10)--------(10)---(10)---------(10)---(10)--------------------------------|
D |------------------------------------------------------------9-----9----------------|
A |--10-----10----------10-----10-----------10-----10---------------------------------|

(0:00)
E |------------------------------------------------------|
B |-------0-------------------------10t-p0--------15T/17-|
F#|-----0--------------------12T-----------10t/12-15T/17-|
D |---0-----7t/9-----12T---------12T---------------------|
A |---------7t/9---------12T---------------12T/14--------|
D |-5------------12T-----9t------------------------------|
A |------------------------------------------------------|

(0:00)
E |-7---0---5-----------2-------------------------------------------------------|
B |---7---0---0-----------3-2------------------3\2------------------------------|
F#|---------------------------3----------5-3-5-----3----------------------------|
D |-------------12T/14----------2/4------------------2/4------------7t/9-12T/14-|
A |-------------12T/14-(2)----------9T\7--------------------5t/7-9T-------------|
D |-5-------------------------------9T\7-5---------------9T---------------------|
A |---------------------2-------------------------------------------------------|

(0:00)
E |-------0------0-----------0------0------------0------0---------------10------------|
B |-----0------0---10p0----0------0---10h12----0------0---10p0----10-------0---12N.H.-|
F#|--10-----10----------10-----10-----------10-----10----------10----10------0-12N.H.-|
D |-----------------------------------------------------------------------------------|
A |-(10)---(10)--------(10)---(10)---------(10)---(10)--------------------------------|
D |------------------------------------------------------------9-----9----------------|
A |--10-----10----------10-----10-----------10-----10---------------------------------|

[Part 8]
(0:00)
E |-------------------------------------------------------------------10---------|
B |---------------12p0--------------12p0--------------12p0----12/14p0----10------|
F#|--12---12---12------12---12---12------12---12---12------12---------------12p0-|
D |-----0----0------------0----0------------0----0-------------------------------|
A |-(10)-(10)-(10)----(10)-(10)-(10)----(10)-(10)-(10)----(12)-------------------|
D |-------------------------------------------------------------------9----------|
A |--10---10---10------10---10---10------10---10---10------12--------------------|

(0:00)
E |-------------------------------------------------------------------10---------|
B |---------------12p0--------------12p0--------------12p0----12/14p0----10------|
F#|--12---12---12------12---12---12------12---12---12------12---------------12p0-|
D |-----0----0------------0----0------------0----0-------------------------------|
A |-(10)-(10)-(10)----(10)-(10)-(10)----(10)-(10)-(10)----(12)-------------------|
D |-------------------------------------------------------------------9----------|
A |--10---10---10------10---10---10------10---10---10------12--------------------|

(0:00)
E |-------------------------------------------------------------------10---------|
B |---------------12p0--------------12p0--------------12p0----12/14p0----10------|
F#|--12---12---12------12---12---12------12---12---12------12---------------12p0-|
D |-----0----0------------0----0------------0----0-------------------------------|
A |-(10)-(10)-(10)----(10)-(10)-(10)----(10)-(10)-(10)----(12)-------------------|
D |-------------------------------------------------------------------9----------|
A |--10---10---10------10---10---10------10---10---10------12--------------------|

(0:00)
E |-------------------------------------------------------------------10---------|
B |---------------12p0--------------12p0--------------12p0----12/14p0----10------|
F#|--12---12---12------12---12---12------12---12---12------12---------------12p0-|
D |-----0----0------------0----0------------0----0-------------------------------|
A |-(10)-(10)-(10)----(10)-(10)-(10)----(10)-(10)-(10)----(12)-------------------|
D |-------------------------------------------------------------------9----------|
A |--10---10---10------10---10---10------10---10---10------12--------------------|

[Part 9]
(0:00)
E |---------0-9p0-----0-9p0---------0-9p0-----0-9p0---------0-5p0---------0-5p0---------0-5p0---------0-5p0-|
B |-0---0---------0---------0---0---------0---------7---7---------7---7---------7---7---------7---7---------|
F#|---8---8---------8---------8---8---------8---------7---7---------7---7---------7---7---------7---7-------|
D |---------------------------------------------------------------------------------------------------------|
A |---------------------------------------------------------------------------------------------------------|
D |-9---9---------9---------9---9---------9---------7---7---------7---7---------7---7---------7---7---------|
A |---------------------------------------------------------------------------------------------------------|

(0:00)
E |-----------5p0-----------5p0-----------5p0-----------5p0-|
B |-5---5---3-----5---5---3-----5---5---3-----5---5---3-----|
F#|---5---5---------5---5---------5---5---------5---5-------|
D |---------------------------------------------------------|
A |---------------------------------------------------------|
D |-5---5---------5---5---------5---5---------5---5---------|
A |---------------------------------------------------------|

(0:00)
E |---------------------------------------------------------|
B |-8---8---7-8p7-8---8---7-8p7-8---8---7-8p7-8---8---7-8p7-|
F#|---0---0---------0---0---------0---0---------0---0-------|
D |---------------------------------------------------------|
A |---------------------------------------------------------|
D |-8---8---------8---8---------8---8---------8---8---------|
A |---------------------------------------------------------|

[Part 10]
(0:00)
E |-------------0-----7-----9---10---|
B |-------0-2/3-0h5-----7-7---0----0-|
F#|-----0---0------------------------|
D |---0------------------------------|
A |--------(2)-----------------------|
D |-5---------------5----------------|
A |---------2------------------------|

[Part 11]
(0:00)
E |--12-14T-----------------------12-14T----------12-14T-----------------------12-14T---------|
B |---------12t-15T/17-------------------12t-15T---------12t-15T/17-------------------12t-15T-|
F#|-------------15T/17-----------------------15T-------------15T/17-----------------------15T-|
D |--------------------12t-15T/17-----------------------------------12t-15T/17----------------|
A |-(10)-------------------------(10)------------(10)-------------------------(10)------------|
D |-------------------------------------------------------------------------------------------|
A |--10---------------------------10--------------10---------------------------10-------------|

(0:00)
E |--12-14T-----------------------12-14T----------12-14T-----------------------12-14T---------|
B |---------12t-15T/17-------------------12t-15T---------12t-15T/17-------------------12t-15T-|
F#|-------------15T/17-----------------------15T-------------15T/17-----------------------15T-|
D |--------------------12t-15T/17-----------------------------------12t-15T/17----------------|
A |-(10)-------------------------(10)------------(10)-------------------------(10)------------|
D |-------------------------------------------------------------------------------------------|
A |--10---------------------------10--------------10---------------------------10-------------|

(0:00)
E |-----------------12t-14T-|
B |---------12t-14T---------|
F#|-12t-14T-----------------|
D |-------------------------|
A |-------------------------|
D |-------------------------|
A |-------------------------|

[Part 12]
(0:00)
E |--------------------------9------------|
B |-------0--------------------10---------|
F#|-------------8h10--------------8/10-12-|
D |---------7h9--------11/12------0-------|
A |---7/9---------------------------------|
D |-5----------------9--------------------|
A |---------------------------------------|

[Part 13]
(0:00)
E |--------0-------0-------0-0----0-----------0-------0-------0-0----0----0---|
B |-----12------12------12---15---15-------12------12------12---15---15---15--|
F#|--12------12------12------15---15----12------12------12------15---15---15--|
D |---------------------------------------------------------------------------|
A |-(10)----(10)----(10)----(13)-(13)--(10)----(10)----(10)----(13)-(13)-(13)-|
D |---------------------------------------------------------------------------|
A |--10------10------10------13---13----10------10------10------13---13---13--|

(0:00)
E |--------0-------0-------0-0----0-----------0-------0-------0-0----0----0---|
B |-----12------12------12---15---15-------12------12------12---15---15---15--|
F#|--12------12------12------15---15----12------12------12------15---15---15--|
D |---------------------------------------------------------------------------|
A |-(10)----(10)----(10)----(13)-(13)--(10)----(10)----(10)----(13)-(13)-(13)-|
D |---------------------------------------------------------------------------|
A |--10------10------10------13---13----10------10------10------13---13---13--|

(0:00)
E |-----2-----2-----2-0---0-------2-----2-----2-0---0---0---|
B |---0-----0-----0---0---0-----0-----0-----0---0---0---0---|
F#|-3-----3-----3-----0---0---3-----3-----3-----0---0---0---|
D |---------------------------------------------------------|
A |---------------------------------------------------------|
D |-5-----5-----5-----5---5---5-----5-----5-----5---5---5---|
A |---------------------------------------------------------|

(0:00)
E |-----2-----2-----2-0---0-------2-----2-----2-0---0---0---|
B |---0-----0-----0---0---0-----0-----0-----0---0---0---0---|
F#|-3-----3-----3-----0---0---3-----3-----3-----0---0---0---|
D |---------------------------------------------------------|
A |---------------------------------------------------------|
D |-5-----5-----5-----5---5---5-----5-----5-----5---5---5---|
A |---------------------------------------------------------|



************************************

| /    Slide up
| p    Pull-off
| (n)  Ghost note
| x    Dead note
| h    Hammer-on
| t    Tapping
| \    Slide down
  

************************************
Suggest correction
Creating personal tab
Creating personal tab
You can edit any tab online and save it as your Personal.

You can edit, replace or remove any tab part or add personal notes – all changes will be seen only by you.

Personal tabs can be accessed anytime from any device, even offline.
Learn more »
Give kudos to tab author, rate the tab!
1 2 3 4 5
comments
print report bad tab
guest
You may want to rate the tab now too:
select rating
Wanna post a correction for this tab? Suggest correction