Oops, an error
Loading. Please wait.

Sugar High Tab

version 3
version 3

Whole song

2,061 views 9 this week
1 commentread comment
1 2 3 4 5
excellent!
x 5
add to favorites
launch autoscroll
font size
0
reset
how to read this tab
guitar tuner
Autoscroll
slow
fast
+/-
esc
set tempo
stop
Help us to improve Ultimate-Guitar.com Take our survey!
×
Author
Difficulty
novice
Coyote Shivers
Sugar High

Originally transcribed by XbrokenHaloX on ttabs

Ok, this song wan on the end of Empire records but it was the cut version,
i looked for tabs all over the net but they all sucked and i think this one
is pretty *** accurate so :oP, its a great song.


	Intro (x2)
	E|--------------------------------------|
	B|--------------------------------------|
	G|--------7------9------5-5-5-5-5-5-5-5-|
	D|-5------7------9------5-5-5-5-5-5-5-5-|
	A|-5------5------7------3-3-3-3-3-3-3-3-|
	E|-3------------------------------------|

	Verse (PM)
	E|-----------------------------------------------------------------|
	B|-----------------------------------------------------------------|
	G|-----------------7-7-7-7-7-7-7-7-----------------5-5-5-5-5-5-5-5-|
	D|-5-5-5-5-5-5-5-5-7-7-7-7-7-7-7-7-7-7-7-7-7-7-7-7-5-5-5-5-5-5-5-5-|
	A|-5-5-5-5-5-5-5-5-5-5-5-5-5-5-5-5-7-7-7-7-7-7-7-7-3-3-3-3-3-3-3-3-|
	E|-3-3-3-3-3-3-3-3-----------------5-5-5-5-5-5-5-5-----------------|
      They all said she's just          another groupie slut
	      I said i thought you were anythihg but.      Think again
	   Sometimes       reputations     outlve their     applications
	   Sometimes fires dont go out, and you end up playing with them
	Chorus
	|-----------------------------------------------------------------|
	|-----7-7-7-7-7-------7-7-7-7-7-------5-5-5-5-5-------5-5-5-5-5---|
	|-7-7-7-7-7-7-7-7-7-7-7-7-7-7-7-7-5-5-5-5-5-5-5-5-5-5-5-5-5-5-5-5-|
	|-7-7-7-7-7-7-7-7-7-7-7-7-7-7-7-7-5-5-5-5-5-5-5-5-5-5-5-5-5-5-5-5-|
	|-5-5-5-5-5-5-5-5-5-5-5-5-5-5-5-5-3-3-3-3-3-3-3-3-3-3-3-3-3-3-3-3-|
	|-----------------------------------------------------------------|
	          I feel so funny deep inside                    when you
	 kiss         me             goodbye                     SUGARHIGH

	Interlude (x2)
	E|---------------------5-5-5-5-5-5---------------------3-3-3-3-3-3-|
	B|-----3-3-3-3-3-3-7-7-7-7-7-7-7-7-----5-5-5-5-5-5-5-5-5-5-5-5-5-5-|
	G|-4-4-4-4-4-4-4-4-7-7-7-7-7-7-7-7-6-6-6-6-6-6-6-6-5-5-5-5-5-5-5-5-|
	D|-5-5-5-5-5-5-5-5-7-7-7-7-7-7-7-7-7-7-7-7-7-7-7-7-5-5-5-5-5-5-5-5-|
	A|-5-5-5-5-5-5-5-5-5-5-5-5-5-5-5-5-7-7-7-7-7-7-7-7-3-3-3-3-3-3-3-3-|
	E|-3-3-3-3-3-3-3-3-----------------5-5-5-5-5-5-5-5-----------------|
							         Sugarhigh

	Verse 2 (PM)
	E|-----------------------------------------------------------------|
	B|-----------------------------------------------------------------|
	G|-----------------7-7-7-7-7-7-7-7-----------------5-5-5-5-5-5-5-5-|
	D|-5-5-5-5-5-5-5-5-7-7-7-7-7-7-7-7-7-7-7-7-7-7-7-7-5-5-5-5-5-5-5-5-|
	A|-5-5-5-5-5-5-5-5-5-5-5-5-5-5-5-5-7-7-7-7-7-7-7-7-3-3-3-3-3-3-3-3-|
	E|-3-3-3-3-3-3-3-3-----------------5-5-5-5-5-5-5-5-----------------|
	       We could go out     and not even leave the house
	      A   t.v.   set and a bottle of wine is      just fine
	           Making out      on that old pull out couch
	     Watching saturday    night  live.            I guess that's why  

	Chorus 2
	|-----------------------------------------------------------------|
	|-----7-7-7-7-7-------7-7-7-7-7-------5-5-5-5-5-------5-5-5-5-5---|
	|-7-7-7-7-7-7-7-7-7-7-7-7-7-7-7-7-5-5-5-5-5-5-5-5-5-5-5-5-5-5-5-5-|
	|-7-7-7-7-7-7-7-7-7-7-7-7-7-7-7-7-5-5-5-5-5-5-5-5-5-5-5-5-5-5-5-5-|
	|-5-5-5-5-5-5-5-5-5-5-5-5-5-5-5-5-3-3-3-3-3-3-3-3-3-3-3-3-3-3-3-3-|
	|-----------------------------------------------------------------|
	          I feel so funny deep inside                    when i
	 lick         between      your thighs                   SUGARHIGH

	Interlude (x2)
	E|---------------------5-5-5-5-5-5---------------------3-3-3-3-3-3-|
	B|-----3-3-3-3-3-3-7-7-7-7-7-7-7-7-----5-5-5-5-5-5-5-5-5-5-5-5-5-5-|
	G|-4-4-4-4-4-4-4-4-7-7-7-7-7-7-7-7-6-6-6-6-6-6-6-6-5-5-5-5-5-5-5-5-|
	D|-5-5-5-5-5-5-5-5-7-7-7-7-7-7-7-7-7-7-7-7-7-7-7-7-5-5-5-5-5-5-5-5-|
	A|-5-5-5-5-5-5-5-5-5-5-5-5-5-5-5-5-7-7-7-7-7-7-7-7-3-3-3-3-3-3-3-3-|
	E|-3-3-3-3-3-3-3-3-----------------5-5-5-5-5-5-5-5-----------------|
							         Sugarhigh

	Solo (x2)
	|-9---9--9---9--9---9---9--9-------------------------|
	|-12(14)-12(14)-12(14)-12(14)--12-10-12--12-12-10-12-|
	|----------------------------------------------------|
	|----------------------------------------------------|
	|----------------------------------------------------|
	|----------------------------------------------------|

	Intro (x2)
	E|--------------------------------------|
	B|--------------------------------------|
	G|--------7------9------5-5-5-5-5-5-5-5-|
	D|-5------7------9------5-5-5-5-5-5-5-5-|
	A|-5------5------7------3-3-3-3-3-3-3-3-|
	E|-3------------------------------------|

	Verse 3 (PM)
	E|-----------------------------------------------------------------|
	B|-----------------------------------------------------------------|
	G|-----------------7-7-7-7-7-7-7-7-----------------5-5-5-5-5-5-5-5-|
	D|-5-5-5-5-5-5-5-5-7-7-7-7-7-7-7-7-7-7-7-7-7-7-7-7-5-5-5-5-5-5-5-5-|
	A|-5-5-5-5-5-5-5-5-5-5-5-5-5-5-5-5-7-7-7-7-7-7-7-7-3-3-3-3-3-3-3-3-|
	E|-3-3-3-3-3-3-3-3-----------------5-5-5-5-5-5-5-5-----------------|
	         I have searched both            far and wide
	       And i've explored the deepest caverns of my mind
	       To try and find an              explanation why
	       I get this funny feeling             deep inside

	Chorus 3
	|-----------------------------------------------------------------|
	|-----7-7-7-7-7-------7-7-7-7-7-------5-5-5-5-5-------5-5-5-5-5---|
	|-7-7-7-7-7-7-7-7-7-7-7-7-7-7-7-7-5-5-5-5-5-5-5-5-5-5-5-5-5-5-5-5-|
	|-7-7-7-7-7-7-7-7-7-7-7-7-7-7-7-7-5-5-5-5-5-5-5-5-5-5-5-5-5-5-5-5-|
	|-5-5-5-5-5-5-5-5-5-5-5-5-5-5-5-5-3-3-3-3-3-3-3-3-3-3-3-3-3-3-3-3-|
	|-----------------------------------------------------------------|
	   when you kiss   me        goodbye                And  when i
          lick        between    your   thighs                SUGARHIGH!

	Interlude (x3)
	E|---------------------5-5-5-5-5-5---------------------3-3-3-3-3-3-|
	B|-----3-3-3-3-3-3-7-7-7-7-7-7-7-7-----5-5-5-5-5-5-5-5-5-5-5-5-5-5-|
	G|-4-4-4-4-4-4-4-4-7-7-7-7-7-7-7-7-6-6-6-6-6-6-6-6-5-5-5-5-5-5-5-5-|
	D|-5-5-5-5-5-5-5-5-7-7-7-7-7-7-7-7-7-7-7-7-7-7-7-7-5-5-5-5-5-5-5-5-|
	A|-5-5-5-5-5-5-5-5-5-5-5-5-5-5-5-5-7-7-7-7-7-7-7-7-3-3-3-3-3-3-3-3-|
	E|-3-3-3-3-3-3-3-3-----------------5-5-5-5-5-5-5-5-----------------|
							         Sugarhigh
	Outro
	E|---------------------5-5-5-5-5-5-------------------3:------------|
	B|-----3-3-3-3-3-3-7-7-7-7-7-7-7-7-----5-5-5-5-5-5-5-5:------------|
	G|-4-4-4-4-4-4-4-4-7-7-7-7-7-7-7-7-6-6-6-6-6-6-6-6-5-5:------------|
	D|-5-5-5-5-5-5-5-5-7-7-7-7-7-7-7-7-7-7-7-7-7-7-7-7-5-5:------------|
	A|-5-5-5-5-5-5-5-5-5-5-5-5-5-5-5-5-7-7-7-7-7-7-7-7-3-3:------------|
	E|-3-3-3-3-3-3-3-3-----------------5-5-5-5-5-5-5-5-----------------|
Suggest correction
comments
print report bad tab
1 comment total.
0 reply
Brokerkid 10 wrote on April 8 2014, 11:57 pm

This is good shit man, thanks lots bro.

guest
You may want to rate the tab now too:
select rating
Wanna post a correction for this tab? Suggest correction