Oops, an error
Loading. Please wait.

Kerosene Hat tab

by Cracker
1,236 views 1 this week
no commentswrite comment
1 2 3 4 5
x 3
add to favorites
×
Save as Personal and add changes to this tab that will be seen only by you. Learn more ›
×
You can save this tab as Personal to edit and correct it or add notes. All changes will be seen only by you. Learn more »
launch autoscroll
font size
0
reset
how to read this tab
guitar tuner
edit
Autoscroll
slow
fast
+/-
esc
set tempo
stop
Author
Kerosene Hat - Cracker
One of my first tabs so dont complain. or do, i dont really care either way.

Em                       C
How can I fly with these old doggy wings
          G                 D
While the magpies sing some shiny song
 
Em                                 C
Old cornface row of teeth she says sweetly to me
       G         D
In the elevator

Em         D            C
Everything seems like a dream
    A                    G       C
And life's a scream

Here come old Kerosene Hat
With his earflaps waxed, a-courtin' his girl

Come clattering here on your old cloven skates
With that devilish spoon

Everything seems like a dream
And life's a scream
When you're submarine

solo:
|-----------------------------------------------------|
|------------------10B12-R10P8---8-10-10B12R10P8H10~~-|
|-7~~~\--7/9-9~~\--------------9----------------------|
|-----------------------------------------------------|
|-----------------------------------------------------|
|-----------------------------------------------------|

|--------------------------------------|
|-10B12-10-8------8\-------------------|
|------------9-9~-----9-7-7-5-7-5-7B9--|
|--------------------------------------|
|--------------------------------------|
|--------------------------------------|

|-----------------------------------------|
|-----------------------------------------|
|-9R7P5-7-5H7P5\4---4H5P4-------5-4-------|
|----------------5-7----------5-----5/7~~-|
|------------------------5--5-------------|
|-----------------------------------------|

|-----------------------------------------------------------------|
|---------8-10B12-10B12-R10P8-10P8~~----8-10~~--8-10-10B12R12P8~~-|
|-9-7-9-9----------------------------/9---------------------------|
|-----------------------------------------------------------------|
|-----------------------------------------------------------------|
|-----------------------------------------------------------------|

So don'tcha bother me, Death, with your leathery ways
And your old chase lounge

A wickerman's fence of heather retires
And the cook's gone mad, started several fires

Everything seems like a dream
When you're submarine

Head like a stream, she says softly to me
From the rattling chair

Bring me a steak and my old pair of crows
My medicine lamp

Everything seems like a dream
So life's a scream

            
            
Suggest correction
Creating personal tab
Creating personal tab
You can edit any tab online and save it as your Personal.

You can edit, replace or remove any tab part or add personal notes – all changes will be seen only by you.

Personal tabs can be accessed anytime from any device, even offline.
Learn more »
Give kudos to tab author, rate the tab!
1 2 3 4 5
comments
print report bad tab
guest
You may want to rate the tab now too:
select rating
Wanna post a correction for this tab? Suggest correction