Oops, an error
Loading. Please wait.

Low Tab

version 1
version 1

Whole song

Interactive

40,474 views 108 this week
5 commentsread comments
1 2 3 4 5
accurate
x 4
add to favorites
launch autoscroll
font size
0
reset
how to read this tab
guitar tuner
Tab Pro tools
  • play this tab
  • loop segment
  • change instrument
  • show fretboard
  • metronome
×
Best way to learn
"Low"
Autoscroll
slow
fast
+/-
esc
set tempo
stop
Contributor
-------------------------------------------------------

Riff 1
|---------------------xx--------------------------|
|---------------------xx---------------8br8br-----|
|-7h9-9-9--7-9-9-9-9--xx--7h9-9-9--7-9--------9p7-|
|---------------------xx--------------------------|
|---------------------xx--------------------------|
|---------------------xx--------------------------|

Riff 2
|-----------|
|-8-10b(12)-| gradually bend to 1 whole step
|-----------|
|-----------|
|-----------|
|-----------|


Chords
(use the fifths when playing an electric and the regular chords when playing an
acoustic, it will sound better)

  D5    C5    E5    G5             D     C     E     G
|-----|-----|-----|-----|       |--2--|--0--|-----|--3--|
|-----|-----|-----|-----|       |--3--|--1--|-----|--3--|
|--7--|--5--|-----|-----|  or   |--2--|--0--|--1--|--0--|
|--7--|--5--|--2--|--5--|       |--0--|--2--|--2--|--0--|
|--5--|--3--|--2--|--5--|       |-----|--3--|--2--|--2--|
|-----|-----|--0--|--3--|       |-----|-----|--0--|--3--|


x = muted string
b = bend
r = release bend
comments
print report bad tab
5 comments total. Showing first comments.
0 reply
JTRipper wrote on March 11 2006, 05:53 pm

this sux

0 reply
UrbanSombrero wrote on July 26 2006, 12:33 am

It doesn't suck. The acoustic chords are sound fine as do the guitars. The only problem is the intro he has.

0 reply
zacaucl wrote on December 9 2006, 04:39 pm


I belive Riff 2 goes like this:

|-----------|
|-----10b---|
|--8b-------|
|-----------|
|-----------|
|-----------|


I want to post or [tab]
guest
You may want to rate the tab now too:
select rating
Please do not post tabs as comments. Select "correction" instead!