Oops, an error
Loading. Please wait.
We have Chord Pro version of Low.
It's the closest thing you can get to the original song and it has interactive parts. Check out the tab »
×
by Cracker
33,105 views 24 this week
3 commentsread comments
1 2 3 4 5
x 6
add to favorites
×
Save as Personal and add changes to this tab that will be seen only by you. Learn more ›
×
You can save this tab as Personal to edit and correct it or add notes. All changes will be seen only by you. Learn more »
launch autoscroll
font size
0
reset
how to read this tab
guitar tuner
backing track
0:00
0:00
edit
Autoscroll
slow
fast
+/-
esc
set tempo
stop
Author
Difficulty
-------------------------------------------------------------------------------
                             LOW - Cracker
-------------------------------------------------------------------------------
Tabbed by: K. Goad (Kuro Noizu)
Email:kagesoujin@hotmail.com

Tuning:Standard

Guitar 1 - Simple chord riff, D, then C, then E5, then G in the following pattern.  
the verse it is an acoustic guitar and then switches to the same as guitar 2, an electric distorted.

   v   v^v   vv  v   v^v    vv
e|-2---222------------------33-------------------------------------------------------|
B|-3---333---11-------------33-------------------------------------------------------|
G|-2---222---------------------------------------------------------------------------|
D|-----------22---2---222------------------------------------------------------------|
A|-----------33---2---222---22-------------------------------------------------------|
E|----------------0---000---33-------------------------------------------------------|

Guitar 2 has two parts, the first is played at the intro and chorus:

e|---------------------------------------------------------------------------|
B|-44554h5-55454554h5--88----------------------------------------------------|
G|-44444---44444444----44----------------------------------------------------|
D|---------------------------------------------------------------------------|
A|---------------------------------------------------------------------------|
E|---------------------------------------------------------------------------|

The second is played during the verse, and sounds mostly clean:

e|--11b12--------------------------------------------------------------------|
B|---------------------------------------------------------------------------|
G|9--------------------------------------------------------------------------|
D|---------------------------------------------------------------------------|
A|---------------------------------------------------------------------------|
E|---------------------------------------------------------------------------|

Then the solo, with distortion
e|---------------------------------------------------------------------------|
B|---------------------------------------------------------------------------|
G|---------------------------------------------------------------------------|
D|--9b--9--9-----------------------------------------------------------12----|
A|--12b-10-10----------------10---1010101010-10-10---------10h10-12s14---14--|
E|------------10-12-12-10h12---12-1514141210-10-10h12-10h12------------------|

e|------------------------------------------|
B|-----11-12-11-----------------------------|
G|---14---------12--1414-1212-1414-1414-14--|
D|------------------------------------------|
A|------------------------------------------|
E|------------------------------------------|

That's about it.

| b  bend
| /  slide up
| \  slide down
| h  hammer-on
| p  pull-off
| ~  vibrato
| +  harmonic
| x  Mute note
===============================================================================

            
            
Suggest correction
Creating personal tab
Creating personal tab
You can edit any tab online and save it as your Personal.

You can edit, replace or remove any tab part or add personal notes – all changes will be seen only by you.

Personal tabs can be accessed anytime from any device, even offline.
Learn more »
comments
print report bad tab
3 comments total.
0 reply
shredding_soon2 10 Jan 26, 2009 10:53 AM

ok guitar2 part is close but not quite right it's more like
e[0/000
B[4/555
G[2/444

E[

+2 reply
Shwax 256 Aug 14, 2009 01:33 PM

the second part of the intro should have the 11b12 on the B string not the e:
e|------------|
B|--11b12-----|
G|9-----------|
D|------------|
A|------------|
E|------------|

0 reply
KickOutTheJhm 10 Oct 05, 2010 05:27 PM

tell me what u guys think of this...

|----------------------------------------------------------|
|-----5-5-5-5------5-5-5-5------5-----5-5-5-5-----5-5-8-5-4|
|--8p4---------8p4----------8p4---8p4---------8p4----------|
|----------------------------------------------------------|
|----------------------------------------------------------|
|----------------------------------------------------------|

guest
You may want to rate the tab now too:
select rating
Wanna post a correction for this tab? Suggest correction