Oops, an error
Loading. Please wait.

Beneath The Howling Stars Bass Tab

version 1
version 1

Whole song

Interactive

785 views 1 this week
no commentswrite comment
1 2 3 4 5
please rate
add to favorites
launch autoscroll
font size
0
reset
guitar tuner
Autoscroll
slow
fast
+/-
esc
set tempo
stop
Help us to improve Ultimate-Guitar.com Take our survey!
×
Author
Track: Beneath the howling stars
Album: Cruelty and the beast
Bass tab by CotyXD

symbols: *=play the note many times
         ~=hold the note

Riff 1 (00:16)  x4
C------------------------------------------------------|
D------------------------------------------------------|
A-----5----------5-----4-----5-----8-------------------|
E----------6-----------------------------9-----8-------|

Riff 2 (00:48)  x6
C----------------------------------|
D----------------------------------|
A----3-----------------------------|
E--------4-3-4--3-4-3--4-3-4--3-4--|

little variation to Riff 2  (01:12)  x2
C---------------------------------|
D--------6-5-6--5-3---------------|
A----3--------------3--2-3-2--0-2-|
E---------------------------------|

Riff 2 again  x4


After a few seconds of silence...  (01:42) x1
C--------------------------------------------------------|
D--------------------------------------------------------|
A--------------------------------------------------------|
E--3-3-3-3-3-3-3-3-3-3-3-3-3-3-3-3-3-3-3-3-3-3-3-3-3-3-3-|

Riff 3  (01:46)  x4
C-------------------------------------------------------------|
D-------------------------------------------------------------|
A-------------------------------------------------------------|
E--3*---6*-5*-3*-----6*-5*-3*-5*-3*---6*-5*-3*---6*-5*-3*-5*--|


stop during the keyboard solo part...


Riff 4 (02:50)  x6
C-----------------------|
D-----------------------|
A--3~-------------5~----|
E------3~----4~---------|

little variation for Riff 4 (when the girl sings)  (03:26)  x4
C----------------------------------------------|
D----------------------------------------------|
A--3-3--3-3-3-----------------------5-5--5-5-5-|
E-------------3-3--3-3-3-4-4--4-4-4------------|


Riff 5 (03:50) play it slowly  x3
C------------------------------------------------------------------------|
D------------------------------------------------------------------------|
A--3---3---3---3-5-6--2---2---2---2-5-6------------------5---3---3---1-0-|
E----------------------------------------3---3---3---3-------------------|


play this after riff 5, just before Dani Filth's scream...  (04:54)
C--------------------------------------|
D--------------------------------------|
A--------------------------------------|
E--5~------6~------3~------5~----------|


Riff 6, very fast  (05:10) x2
C------------------------------------------------------|
D-0*--------1*-------------------0*----0-1-0-1-5-4-5-7-|
A----------------------3*------------------------------|
E------------------------------------------------------|

...play again...
Riff 1 (05:41)  x4
Riff 2 (06:14)  x4
Riff 6 (06:30)  x2

then play Riff 6, but slowly, follow the rythm... (07:01) x2

little variation to end the song, Riff 6 slowly...
C--------------------------------------------------------|
D-0*--------1*-------------------0*----0-1-0-1-5-4-5-7-5-|
A----------------------3*--------------------------------|
E--------------------------------------------------------|
Suggest correction
Give kudos to tab author, rate the tab!
1 2 3 4 5
comments
print report bad tab
guest
You may want to rate the tab now too:
select rating
Please do not post tabs as comments. Select "correction" instead!