Oops, an error
Loading. Please wait.

Bestial Lust Tab

version 1
version 1

Whole song

Interactive

1,311 views 1 this week
2 commentsread comments
1 2 3 4 5
1 last vote to show rating
add to favorites
launch autoscroll
font size
0
reset
how to read this tab
guitar tuner
Autoscroll
slow
fast
+/-
esc
set tempo
stop
Help us to improve Ultimate-Guitar.com Take our survey!
×
Author
Difficulty
intermediate
Q=148
 4/4
  Gtr I
  PM    PM--|           PM    PM--|           PM    PM--|
  E E.  S S S E. E. E.  E E.  S S S E. E. E.  E E.  S S S E. E. E.
|---------------------------------------------------------------------|
|---------------------------------------------------------------------|
|---------------------------------------------------------------------|
|-3-3---------6--5--6---3-3---------6--8--6---3-3---------6--5--6-----|
|-1-1---1-1-1-4--3--4---1-1---1-1-1-4--6--4---1-1---1-1-1-4--3--4-----|
|---------------------------------------------------------------------|


  PM-------------|
  e. e. e. e. e. e.
|----------------------|
|----------------------|
|----------------------|
|-6--5--6--6--8--6-----|
|-4--3--4--4--6--4-----|
|----------------------|


  PM   PM--|            PM   PM--|
  E E. S S S E. E. E.   E E. S S S E. E. E.
|---------------------|---------------------|
|---------------------|---------------------|
|---------------------|---------------------|
|-3-3--------6--5--6--|-3-3--------6--8--6--|
|-1-1--1-1-1-4--3--4--|-1-1--1-1-1-4--6--4--|
|---------------------|---------------------|


  PM   PM--|                PM--|
  E E. S S S E. E. E.  E E. S S S. E. E. E.
|-------------------------------------------|
|-------------------------------------------|
|-------------------------------------------|
|-3-3--------6--5--6---3-3---------6--8--6--|
|-1-1--1-1-1-4--3--4---1-1--1-1-1--4--6--4--|
|-------------------------------------------|


    PM     PM   PM    PM    PM--|           PM
    E H    E Q  E  Q  E E.  S S S E. E. E.  E E.  S S S E. E. E.     4x
||-------------------------------------------------------------------||
||o-----------------------------------------------------------------o||
||----6------5-----4-------------------------------------------------||
||----6------5-----4--3-3---------6--5--6---3-3---------6--8--6------||
||o-4-4----3-3--2--2--1-1---1-1-1-4--3--4---1-1---1-1-1-4--6--4-----o||
||----4------3-----2-------------------------------------------------||


  1.
  PM   PM--|            PM   PM--|
  E E. S S S E. E. E.   E E. S S S E. E. E.
|---------------------|------------------------|
|---------------------|------------------------|
|---------------------|------------------------|
|-3-3--------6--5--6--|-3-3--------6--8--6-----|
|-1-1--1-1-1-4--3--4--|-1-1--1-1-1-4--6--4-----|
|---------------------|------------------------|


    Q  E S S S S S S S S S S S S S S S S S S S S S S S S S S S S
||------------------------------------------------------------------|
||o-----------------------------------------------------------------|
||------------------------------------------------------------------|
||--5--3-6-6-6-6-6-6-6-6-6-6-6-6-9-9-9-9-9-9-9-9-9-9-9-9-9-9-9-9----|
||o-3--1-4-4-4-4-4-4-4-4-4-4-4-4-7-7-7-7-7-7-7-7-7-7-7-7-7-7-7-7----|
||------------------------------------------------------------------|


  Q  E S S S S S S S S S S   S S S S S S S S S S S S S S S S   S S
|--------------------------|---------------------------------|--------||
|--------------------------|---------------------------------|-------o||
|--------------------------|---------------------------------|--------||
|-5--3-7-7-7-7-7-7-7-7-7-7-|-7-7-4-4-4-4-4-4-4-4-3-3-3-3-3-3-|-3-3----||
|-3--1-5-5-5-5-5-5-5-5-5-5-|-5-5-2-2-2-2-2-2-2-2-1-1-1-1-1-1-|-1-1---o||
|--------------------------|---------------------------------|--------||


  W    W    W    E Q Q E E
|-----------------------------|
|-----------------------------|
|-----------------------------|
|-3----3----3----3-3-3-3-3----|
|-1----1----1----1-1-1-1-1----|
|-----------------------------|


    PM   PM--|            PM   PM--|
    E E. S S S E. E. E.   E E. S S S E. E. E.
||----------------------|---------------------|
||o---------------------|---------------------|
||----------------------|---------------------|
||--3-3--------6--5--6--|-3-3--------6--8--6--|
||o-1-1--1-1-1-4--3--4--|-1-1--1-1-1-4--6--4--|
||----------------------|---------------------|


  PM   PM--|                 PM--|
  E E. S S S E. E. E.   E E. S S S. E. E. E.
|---------------------|----------------------||
|---------------------|---------------------o||
|---------------------|----------------------||
|-3-3--------6--5--6--|-3-3---------6--8--6--||
|-1-1--1-1-1-4--3--4--|-1-1--1-1-1--4--6--4-o||
|---------------------|----------------------||


    PM     PM     PM   PM   PM--|            PM
    E H    E Q    E Q  E E. S S S E.   E. E. E E. S S S E.   E. E.     4x
||--------------|--------------------|---------------------|-----------||
||o-------------|--------------------|---------------------|----------o||
||----6------5--|---4----------------|---------------------|-----------||
||----6------5--|---4--3-3--------6--|-5--6--3-3--------6--|-8--6------||
||o-4-4----3-3--|-2-2--1-1--1-1-1-4--|-3--4--1-1--1-1-1-4--|-6--4-----o||
||----4------3--|---2----------------|---------------------|-----------||


  PM   PM--|            PM   PM--|
  E E. S S S E. E. E.   E E. S S S E. E. E.
|---------------------|------------------------|
|---------------------|------------------------|
|---------------------|------------------------|
|-3-3--------6--5--6--|-3-3--------6--8--6-----|
|-1-1--1-1-1-4--3--4--|-1-1--1-1-1-4--6--4-----|
|---------------------|------------------------|


    Q  E S S S S S S S S S S   S S S S S S S S S S S S S S S S   S S
||---------------------------|---------------------------------|------|
||o--------------------------|---------------------------------|------|
||---------------------------|---------------------------------|------|
||--5--3-6-6-6-6-6-6-6-6-6-6-|-6-6-9-9-9-9-9-9-9-9-9-9-9-9-9-9-|-9-9--|
||o-3--1-4-4-4-4-4-4-4-4-4-4-|-4-4-7-7-7-7-7-7-7-7-7-7-7-7-7-7-|-7-7--|
||---------------------------|---------------------------------|------|


  Q  E S S S S S S S S S S   S S S S S S S S S S S S S S S S   S S
|--------------------------|---------------------------------|--------||
|--------------------------|---------------------------------|-------o||
|--------------------------|---------------------------------|--------||
|-5--3-7-7-7-7-7-7-7-7-7-7-|-7-7-4-4-4-4-4-4-4-4-3-3-3-3-3-3-|-3-3----||
|-3--1-5-5-5-5-5-5-5-5-5-5-|-5-5-2-2-2-2-2-2-2-2-1-1-1-1-1-1-|-1-1---o||
|--------------------------|---------------------------------|--------||


  W          W          W          E Q  Q  E E
|----------|----------|----------|--------------|
|----------|----------|----------|--------------|
|----------|----------|----------|--------------|
|-3--------|-3--------|-3--------|-3-3--3--3-3--|
|-1--------|-1--------|-1--------|-1-1--1--1-1--|
|----------|----------|----------|--------------|

Suggest correction
Give kudos to tab author, rate the tab!
1 2 3 4 5
comments
print report bad tab
2 comments total.
0 reply
chasef 629 Jul 21, 2008 08:05 PM

im asuming this is in DCGFAD is it?

0 reply
blackmetal619 207 Jul 25, 2008 01:22 PM

Yes it is...sorry about that

guest
You may want to rate the tab now too:
select rating
Wanna post a correction for this tab? Suggest correction