Oops, an error
Loading. Please wait.

Beyond Eleventh Hour Tab

version 1
version 1

Solo

Whole song

Interactive

159 views 1 this week
no commentswrite comment
1 2 3 4 5
please rate
add to favorites
launch autoscroll
font size
0
reset
how to read this tab
guitar tuner
Autoscroll
slow
fast
+/-
esc
set tempo
stop
Help us to improve Ultimate-Guitar.com Take our survey!
×
Contributor
Difficulty
Tuning
intermediate
D G C F A D




SOLO
GT1                                                _____
-------------------------_------------------------/     \----------|
------------------------/ \--------9--9/12-11-9-11-12-11-9-11------|
-------------------8---8-9-8-6---8---------------------------------|
-----/6--5--9--8---------------6-----------------------------------|
-------------------------------*-*---------------------------------|
-4-----------------------------------------------------------------|
GT2
--------------------------------------------------------------------|
--------------------------------------------------------------------|
--------------------------------------------------------------------|
-------------------------------^------------------------------------|
-6------6------6----6----6----7-6-4-6-6------6------6----4--4--7--7-|
-4-4444-4-4444-4-44-4-44-4-44-5-4-2/4-4-4444-4-4444-4-44-2--2--5--5-|
   ****   ****   **   **   **           ****   ****   **
GT1                                  /\               
-------------------------------/\---91112-11---------------------------|
--------------------------/\--91112----------12-9-/12-11-9-12-11-12----|
------------/\-------/\--8911---------------------------------------11-|
-------/\--8911-/\--8911-----------------------------------------------|
--/\--7911-----7911----------------------------------------------------|
-7911------------------------------------------------------------------|
GT2
--------------------------------------------------------------------|
--------------------------------------------------------------------|
--------------------------------------------------------------------|
-------------------------------^------------------------------------|
-6------6------6----6----6----7-6-4-6-6------6------6----4--4--5--5-|
-4-4444-4-4444-4-44-4-44-4-44-5-4-2/4-4-4444-4-4444-4-44-2--2--3--3-|
   ****   ****   **   **   **           ****   ****   **
GT1                __                                     _
------------------/  \-------------^---------------------/ \-------|
-12-0-0-11-0-7-0-8-10-8-0-7-0-5-0-7-8-7-0-0-3-0-5-0-2-0-2-3-2-0----|
----------------------------------------------------------------3~-|
-------------------------------------------------------------------|
-------------------------------------------------------------------|
-------------------------------------------------------------------|

--------------------------------------------------------------------|
--------------------------------------------------------------------|
--------------------------------------------------------------------|
-------------------------------^---^--------------------------------|
-4------4------4----4----4----5-4-2-4-4------4------4----2--2--5--5-|
-2-2222-2-2222-2-22-2-22-2-22-3-2-0-2-2-2222-2-2222-2-22-0--0--3--3-|
   ****   ****   **   **   **           ****   ****   **
                                       ______
GT1                                   /      \
------------------------------------18-19-18-15---14----------------------|
7\5-5-5/8-8-8\7-7-7/11-11-11/12-12------------17----14-15-17-14-11-12-14--|
-----------------------------------------------16-----------------------11|
--------------------------------------------------------------------------|
--------------------------------------------------------------------------|
--------------------------------------------------------------------------|

--------------------------------------------------------------------|
--------------------------------------------------------------------|
--------------------------------------------------------------------|
-------------------------------^---^--------------------------------|
-4------4------4----4----4----5-4-2-4-4------4------4----2--2--5--7-|
-2-2222-2-2222-2-22-2-22-2-22-3-2-0-2-2-2222-2-2222-2-22-0--0--3--5-|
   ****   ****   **   **   **           ****   ****   **
Suggest correction new What's this?
You can suggest a correction to this tab. Community and Mods will review your correction and vote to approve or reject it.
comments
We did not receive enough feedback on this tab! Please rate:
print report bad tab
1 2 3 4 5
guest
You may want to rate the tab now too:
select rating
Please do not post tabs as comments. Select "correction" instead!