Oops, an error
Loading. Please wait.

Byronic Man Tab

version 1
version 1

Solo

Whole song

Interactive

843 views 1 this week
1 commentread comment
1 2 3 4 5
please rate
add to favorites
launch autoscroll
font size
0
reset
how to read this tab
guitar tuner
Tab Pro tools
  • play this tab
  • loop segment
  • change instrument
  • show fretboard
  • metronome
Autoscroll
slow
fast
+/-
esc
set tempo
stop
Contributor
Difficulty
novice
Byronic Man – Cradle of Filth


 Riff 1
|------------------------------------|
|------------------------------------|
|-4----7---6s-4--6-------10---7—6s-4-| 4x
|------------------------------------|
|------------------------------------|
|------------------------------------|

 Riff 2
|--------------------------------------------|
|--------------------------------------------|
|--------------------------------------------| 4x
|--------------------------------------------|
|-2---5-4s-2----5-4s-2s-4---8-5s-4-----------|
|-------------------------------------4—6s-7-|

 Riff 3
|------------------------------------------------|
|------------------------------------------------|
|-4---7-6-4-6-4---7-6-4-6-6~~~~10~~~~13~~~~16~~~~| 2x
|------------------------------------------------|
|------------------------------------------------|
|------------------------------------------------|

 Riff 4
|---------------------------------|
|---------------------------------|
|---------------------------------| 2x
|-7-3-0-7-3-0-7-3-0-3-7-0-3-7-3-7-|
|---------------------------------|
|---------------------------------|

 Riff 5
|-------------------------------------------|
|-------------------------------------------|
|-------------------------------------------| 2x
|-4--4-4-4---5--5-5-5---4--4-4-4---5--5-7-5-| 
|-4--4-4-4---5--5-5-5---4--4-4-4---5--5-7-5-|
|-4--4-4-4---5--5-5-5---4--4-4-4---5--5-7-5-|

Riff 6
|--------------------------------------------|
|--------------------------------------------|
|--------------------------------------------| 2x
|--------------------------------------------|
|-2---5-4s-2----5-4s-2s-4---8-5s-4-----------|
|-------------------------------------4—6s-7-|

 Riff 7
|------------------------------------------------|
|------------------------------------------------|
|-4---7-6-4-6-4---7-6-4-6-6~~~~10~~~~13~~~~16~~~~| 2x
|------------------------------------------------|
|------------------------------------------------|
|------------------------------------------------|

Riff 8
|---------------------------------|
|---------------------------------|
|---------------------------------| 2x
|-7-3-0-7-3-0-7-3-0-3-7-0-3-7-3-7-|
|---------------------------------|
|---------------------------------|

 Riff 9
|-------------------------------------------|
|-------------------------------------------|
|-------------------------------------------|
|-4--4-4-4---5--5-5-5---4--4-4-4---5--5-7-5-| 2x
|-4--4-4-4---5--5-5-5---4--4-4-4---5--5-7-5-|
|-4--4-4-4---5--5-5-5---4--4-4-4---5--5-7-5-|

 Riff 6
|--------------------------------------------|
|--------------------------------------------|
|--------------------------------------------| 2x
|--------------------------------------------|
|-2---5-4s-2----5-4s-2s-4---8-5s-4-----------|
|-------------------------------------4—6s-7-|

 Riff 7
|---------------------------------------------------------|
|---------------------------------------------------------|
|---------------------------------------------------------| 2x
|---------------------------------------------------------|
|-222222222222-555555-444-222-444444444444-888888-555-444-|
|---------------------------------------------------------|

 Solo part A    (listen for the timing)
|----------------------------------------------------------|
|----------------------------------------------------------|
|----------------------------------------------------------|
|-4---7--6--4---4---7--6--4---0--4-0--0-4-6-----4------4-6-|
|--------------------------------------------4----4--4-----|
|----------------------------------------------------------|

|----------------------------------------------------------|
|----------------------------------------------------------|
|----------------------------------------------------------|
|-4---7--6--4---4---11-9-7-4—0--4--0--0-4-6-----4------4-6-|
|--------------------------------------------4----4--4-----|
|----------------------------------------------------------|

 End of Solo
|-----------------|
|-----------------|
|-----------------|
|-----------------|
|-5-4-2-0---------|
|---------7-5-7-4-|

 Riff 8
|-------------------------------------------|
|-------------------------------------------|
|-------------------------------------------|
|-4--4-4-4---5--5-5-5---4--4-4-4---5--5-7-5-| 4x
|-4--4-4-4---5--5-5-5---4--4-4-4---5--5-7-5-|
|-4--4-4-4---5--5-5-5---4--4-4-4---5--5-7-5-|

 Outro
|----------|
|----------|
|----------|
|-7--5-7-4-|
|-7--5-7-4-|
|-7--5-7-4-|
comments
We did not receive enough feedback on this tab! Please rate:
print report bad tab
1 2 3 4 5
1 comment total.
0 reply
LightningboltX wrote on October 23 2006, 04:28 pm

What tuning man?Drop C?

I want to post or [tab]
guest
You may want to rate the tab now too:
select rating
Please do not post tabs as comments. Select "correction" instead!