Oops, an error
Loading. Please wait.

Dirge Inferno Tab

version 4
version 4

Whole song

Interactive

65 views 1 this week
no commentswrite comment
1 2 3 4 5
1 last vote to show rating
add to favorites
launch autoscroll
font size
0
reset
how to read this tab
guitar tuner
Autoscroll
slow
fast
+/-
esc
set tempo
stop
Help us to improve Ultimate-Guitar.com Take our survey!
×
Author
Tuning
CRADLE OF FILTH

DIRGE INFERNO

TABBED BY andherembrace

D-G-C-F-A-D






L
---------------------------------------------------------------------------------------------------------------|
---------------------------------------------------------------------------------------------------------------|
---------------------------------------------------------------------------------------------------------------|
---------------------------------------------------------------------------------------------------------------|
-2------------------------3------------5-------3------2--------------------------3------5-------12-------------|
-0------------------------1------------3-------1------0--------------------------1------3------/10---\---------|

R
---------------------------------------------------------------------------------------------------------------|
-----------------------------------------------------------------------------------------------------------PH--|
-----------------------------------------------------------------------------------------------------------9---|
----9--10-----9--10-----9-----9--10--9------9--10--12-----9--10-----9--10-----9------9--10--9-------9--10------|
-7---------7~--------7----/8-----------/10-------------7---------7~--------7-----/8------------/10-------------|
---------------------------------------------------------------------------------------------------------------|



L
--------------------------------------------------------------------------------------------------------------|
--------------------------------------------------------------------------------------------------------------|
--------------------------------------------------------------------------------------------------------------|
--------------------------------------------------------------------------------------------------------------|
-------------------------------------------------------------------------------------------12-----------------|
-00-00-00-00-00-00-00-00--11-11-11-11--33-33-33-11--00-00-00-00-00-00-00-00--11-11-11-11--/10-----\-----------|
 ** ** ** ** ** ** ** **  ** ** ** **  ** ** ** **  ** ** ** ** ** ** ** **  ** ** ** **
R
---------------------------------------------------------------------------------------------------------------|
-----------------------------------------------------------------------------------------------------------PH--|
-----------------------------------------------------------------------------------------------------------9---|
----9--10-----9--10-----9-----9--10--9------9--10--12-----9--10-----9--10-----9------9--10--9-------9--10------|
-7---------7~--------7----/8-----------/10-------------7---------7~--------7-----/8------------/10-------------|
---------------------------------------------------------------------------------------------------------------|





0:18

L
------------------------------------------------------------------------------------------|
------------------------------------------------------------------------------------------|
------------------------------------------------------------------------------------------|
-----999910101010----999910101010----9999----9999101010109999--------99991010101012121212-|
-7777------------7777------------7777----8888----------------10101010---------------------|
------------------------------------------------------------------------------------------|

R
--------------------------------------------------------------------------------------------|
--------------------------------------------------------------------------------------------|
--------------------------------------------------------------------------------------------|
--------------------------------------------------------------------------------------------|
-7777999910101010777799991010101077779999------------1010991010101010101010-----------------|
-----------------------------------------888888888888-----------------------1010101010101010|

L
------------------------------------------------------------------------------------------|
------------------------------------------------------------------------------------------|
---------------------------------------------------------------------------------9999-----|
-----999910101010----999910101010----9999----9999101010109999--------999910101010---------|
-7777------------7777------------7777----8888----------------10101010---------------------|
------------------------------------------------------------------------------------------|

R
----------------------------------------------------------------------------------------|
----------------------------------------------------------------------------------------|
----------------------------------------------------------------------------------------|
-------------------------------------------------------------------------------9999-----|
-7777999910101010777799991010101077779999------------101099--------999910101010---------|
-----------------------------------------888888888888------10101010---------------------|



L
------------------------------------------------------------------------------------------|
------------------------------------------------------------------------------------------|
------------------------------------------------------------------------------------------|
-----999910101010----999910101010----9999----9999101010109999--------99991010101012121212-|
-7777------------7777------------7777----8888----------------10101010---------------------|
------------------------------------------------------------------------------------------|

R
--------------------------------------------------------------------------------------------|
--------------------------------------------------------------------------------------------|
--------------------------------------------------------------------------------------------|
--------------------------------------------------------------------------------------------|
-7777999910101010777799991010101077779999------------1010991010101010101010-----------------|
-----------------------------------------888888888888-----------------------1010101010101010|


L
--------------------------------------------------------------------------|
--------------------------------------------------------------------------|
--------------------------------------------------------------7-6---------|
-----999910101010----999910101010----9999----9999101010109999-7-6--6-5--4-|
-7777------------7777------------7777----8888-----------------5-4--6-5--4-|
-------------------------------------------------------------------4-3--2-|

R
-------------------------------------------------------------------------|
-------------------------------------------------------------------------|
-----------------------------------------------------------7-6-----------|
-----------------------------------------------------------7-6--6-5--4---|
-7777999910101010777799991010101077779999------------------5-4--6-5--4---|
-----------------------------------------88888888888888888------4-3--2---|




0:38


-------------------------------------------------------------------------------------------------------------|
-------------------------------------------------------------------------------------------------------------|
-------------------------------------------------------------------------------------------------------------|
-------------------------------------------------------------------------------------------------------------|
-3----2-----------------------3----2-------5-7-6-8--3----2-----------------------3----2--------^-------^---^-|
-1--0-0---0-0-000-000-000-000-1--0-0---0-0-3-5-4-6--1--0-0---0-0-000-000-000-000-1--0-0---0-0-0-3-3-3-3-6-1-4|
    *     * * *** *** *** ***    *     * *             *     * * *** *** *** ***    *     * *

---------------------------------------------------------------------------------------------------------------|
---------------------------------------------------------------------------------------------------------------|
---------------------------------------------------------------------------------------------------------------|
---------------------------------------------------------------------------------------------------------------|
3----2-----------------------3----2-------5-7-6-8-3----2-----------------------3----2--------^-------^---^--7--|
1--0-0---0-0-000-000-000-000-1--0-0---0-0-3-5-4-6-1--0-0---0-0-000-000-000-000-1--0-0---0-0-0-3-3-3-3-6-1-4-5-\|
   *     * * *** *** *** ***    *     * *            *     * * *** *** *** ***    *     * *




1:05


--------------------------------------------------------------------------|
--------------------------------------------------------------------------|
--------------------------------------------------------------------------|
11111111-10101010-11111111-13131313-14141414-13131313-11111111-1313-1111--|
-9-9-9-9--8-8-8-8--9-9-9-9-11111111-12121212-11111111--9-9-9-9-1111--9-9--|
--------------------------------------------------------------------------|


------------------------------------------------------------------------------------|
------------------------------------------------------------------------------------|
------------------------------------------------------------------------------------|
------5555-7777------5555-7777-8888------11111111-555555555555-6666-5555-3333-55-33-|
-0000-----------0000----------------6666--9-9-9-9-333333333333-4444-3333-1111-33-11-|
------------------------------------------------------------------------------------|


---------------------------------------------------------------------------------------------------------------|
---------------------------------------------------------------------------------------------------------------|
---------------------------------------------------------------------------------------------------------------|
-----5555-7777------5555-7777-8888-----11111111-10101010-11111111-13131313-14141414-13131313-11111111-1313-1111|
0000-----------0000---------------6666--9-9-9-9--8-8-8-8--9-9-9-9-11111111-12121212-11111111--9-9-9-9-1111--9-9|
---------------------------------------------------------------------------------------------------------------|


------------------------------------------------------------------------------------|
------------------------------------------------------------------------------------|
------------------------------------------------------------------------------------|
------5555-7777------5555-7777-8888------11111111-555555555555-6666-5555-3333-55-33-|
-0000-----------0000----------------6666--9-9-9-9-333333333333-4444-3333-1111-33-11-|
------------------------------------------------------------------------------------|


---------------------------------------------------------------------------------------------------------------|
---------------------------------------------------------------------------------------------------------------|
---------------------------------------------------------------------------------------------------------------|
-----5555-7777------5555-7777-8888-----11111111-10101010-11111111-13131313-14141414-13131313-11111111-1313-1111|
0000-----------0000---------------6666--9-9-9-9--8-8-8-8--9-9-9-9-11111111-12121212-11111111--9-9-9-9-1111--9-9|
---------------------------------------------------------------------------------------------------------------|




1:26


---------------------------------------------------------------------------------------|
---------------------------------------------------------------------------------------|
----5-6-----5-6-----5------5-6-5-----5-6-8-----5-6-----5-6-----5------5-6-5------------|
----5-6-----5-6-----5------5-6-5-----5-6-8-----5-6-----5-6-----5------5-6-5----6-5-----|
----3-4-----3-4-----3------3-4-3-----3-4-6-----3-4-----3-4-----3------3-4-3--6-4-3-2---|
-0-------0-------0------0---------0---------0-------0-------0------0---------4-----0---|
 *       *       *      *         *         *       *       *      *     


---------------------------------------------------------------------------------------|
---------------------------------------------------------------------------------------|
----5-6-----5-6-----5------5-6-5-----5-6-8-----5-6-----5-6-----5------5-6-5------------|
----5-6-----5-6-----5------5-6-5-----5-6-8-----5-6-----5-6-----5------5-6-5----6-5-----|
----3-4-----3-4-----3------3-4-3-----3-4-6-----3-4-----3-4-----3------3-4-3--6-4-3-2---|
-0-------0-------0------0---------0---------0-------0-------0------0---------4-----0---|
 *       *       *      *         *         *       *       *      *     



-------------------------------------------------------------------------------------------------------------|
-------------------------------------------------------------------------------------------------------------|
-------------------------------------------------------------------------------------------------------------|
-------------------------------------------------------------------------------------------------------------|
-3----2-----------------------3----2-------5-7-6-8--3----2-----------------------3----2--------^-------^---^-|
-1--0-0---0-0-000-000-000-000-1--0-0---0-0-3-5-4-6--1--0-0---0-0-000-000-000-000-1--0-0---0-0-0-3-3-3-3-6-1-4|
    *     * * *** *** *** ***    *     * *             *     * * *** *** *** ***    *     * *

---------------------------------------------------------------------------------------------------------------|
---------------------------------------------------------------------------------------------------------------|
---------------------------------------------------------------------------------------------------------------|
---------------------------------------------------------------------------------------------------------------|
3----2-----------------------3----2-------5-7-6-8-3----2-----------------------3----2--------^-------^---^--7--|
1--0-0---0-0-000-000-000-000-1--0-0---0-0-3-5-4-6-1--0-0---0-0-000-000-000-000-1--0-0---0-0-0-3-3-3-3-6-1-4-5-\|
   *     * * *** *** *** ***    *     * *            *     * * *** *** *** ***    *     * *


2:12

--------------------------------------------------------------------------|
--------------------------------------------------------------------------|
--------------------------------------------------------------------------|
11111111-10101010-11111111-13131313-14141414-13131313-11111111-1313-1111--|
-9-9-9-9--8-8-8-8--9-9-9-9-11111111-12121212-11111111--9-9-9-9-1111--9-9--|
--------------------------------------------------------------------------|



------------------------------------------------------------------------------------|
------------------------------------------------------------------------------------|
------------------------------------------------------------------------------------|
------5555-7777------5555-7777-8888------11111111-555555555555-6666-5555-3333-55-33-|
-0000-----------0000----------------6666--9-9-9-9-333333333333-4444-3333-1111-33-11-|
------------------------------------------------------------------------------------|


---------------------------------------------------------------------------------------------------------------|
---------------------------------------------------------------------------------------------------------------|
---------------------------------------------------------------------------------------------------------------|
-----5555-7777------5555-7777-8888------11111111-10101010-11111111-13131313-14141414-13131313-11111111-1313-1111|
0000-----------0000---------------6666--9-9-9-9--8-8-8-8--9-9-9-9-11111111-12121212-11111111--9-9-9-9-1111--9-9|
---------------------------------------------------------------------------------------------------------------|


------------------------------------------------------------------------------------|
------------------------------------------------------------------------------------|
------------------------------------------------------------------------------------|
------5555-7777------5555-7777-8888------11111111-555555555555-6666-5555-3333-55-33-|
-0000-----------0000----------------6666--9-9-9-9-333333333333-4444-3333-1111-33-11-|
------------------------------------------------------------------------------------|


---------------------------------------------------------------------------------------------------------------|
---------------------------------------------------------------------------------------------------------------|
---------------------------------------------------------------------------------------------------------------|
-----5555-7777------5555-7777-8888------11111111-10101010-11111111-13131313-14141414-13131313-11111111-1313-1111|
0000-----------0000---------------6666--9-9-9-9--8-8-8-8--9-9-9-9-11111111-12121212-11111111--9-9-9-9-1111--9-9|
---------------------------------------------------------------------------------------------------------------|




---------------------------------------------------------------------------------------|
---------------------------------------------------------------------------------------|
----5-6-----5-6-----5------5-6-5-----5-6-8-----5-6-----5-6-----5------5-6-5------------|
----5-6-----5-6-----5------5-6-5-----5-6-8-----5-6-----5-6-----5------5-6-5----6-5-----|
----3-4-----3-4-----3------3-4-3-----3-4-6-----3-4-----3-4-----3------3-4-3--6-4-3-2---|
-0-------0-------0------0---------0---------0-------0-------0------0---------4-----0---|
 *       *       *      *         *         *       *       *      *     


---------------------------------------------------------------------------------------|
---------------------------------------------------------------------------------------|
----5-6-----5-6-----5------5-6-5-----5-6-8-----5-6-----5-6-----5------5-6-5------------|
----5-6-----5-6-----5------5-6-5-----5-6-8-----5-6-----5-6-----5------5-6-5----6-5-----|
----3-4-----3-4-----3------3-4-3-----3-4-6-----3-4-----3-4-----3------3-4-3--6-4-3-2---|
-0-------0-------0------0---------0---------0-------0-------0------0---------4-----0---|
 *       *       *      *         *         *       *       *      *     




2:53

L
---------------------------------------------------------------------------------------------------------------|
---------------------------------------------------------------------------------------------------------------|
---------------------------------------------------------------------------------------------------------------|
---------------------------------------------------------------------------------------------------------------|
-2------------------------3------------5-------3------2--------------------------3------5-------12-------------|
-0------------------------1------------3-------1------0--------------------------1------3------/10---\---------|

R
---------------------------------------------------------------------------------------------------------------|
-----------------------------------------------------------------------------------------------------------PH--|
-----------------------------------------------------------------------------------------------------------9---|
----9--10-----9--10-----9-----9--10--9------9--10--12-----9--10-----9--10-----9------9--10--9-------9--10------|
-7---------7~--------7----/8-----------/10-------------7---------7~--------7-----/8------------/10-------------|
---------------------------------------------------------------------------------------------------------------|



L
--------------------------------------------------------------------------------------------------------------|
--------------------------------------------------------------------------------------------------------------|
--------------------------------------------------------------------------------------------------------------|
--------------------------------------------------------------------------------------------------------------|
-------------------------------------------------------------------------------------------12-----------------|
-00-00-00-00-00-00-00-00--11-11-11-11--33-33-33-11--00-00-00-00-00-00-00-00--11-11-11-11--/10-----\-----------|
 ** ** ** ** ** ** ** **  ** ** ** **  ** ** ** **  ** ** ** ** ** ** ** **  ** ** ** **
R
---------------------------------------------------------------------------------------------------------------|
-----------------------------------------------------------------------------------------------------------PH--|
-----------------------------------------------------------------------------------------------------------9---|
----9--10-----9--10-----9-----9--10--9------9--10--12-----9--10-----9--10-----9------9--10--9-------9--10------|
-7---------7~--------7----/8-----------/10-------------7---------7~--------7-----/8------------/10-------------|
---------------------------------------------------------------------------------------------------------------|



L
------------------------------------------------------------------------------------------|
------------------------------------------------------------------------------------------|
------------------------------------------------------------------------------------------|
-----999910101010----999910101010----9999----9999101010109999--------99991010101012121212-|
-7777------------7777------------7777----8888----------------10101010---------------------|
------------------------------------------------------------------------------------------|

R
--------------------------------------------------------------------------------------------|
--------------------------------------------------------------------------------------------|
--------------------------------------------------------------------------------------------|
--------------------------------------------------------------------------------------------|
-7777999910101010777799991010101077779999------------1010991010101010101010-----------------|
-----------------------------------------888888888888-----------------------1010101010101010|

L
------------------------------------------------------------------------------------------|
------------------------------------------------------------------------------------------|
---------------------------------------------------------------------------------9999-----|
-----999910101010----999910101010----9999----9999101010109999--------999910101010---------|
-7777------------7777------------7777----8888----------------10101010---------------------|
------------------------------------------------------------------------------------------|

R
----------------------------------------------------------------------------------------|
----------------------------------------------------------------------------------------|
----------------------------------------------------------------------------------------|
-------------------------------------------------------------------------------9999-----|
-7777999910101010777799991010101077779999------------101099--------999910101010---------|
-----------------------------------------888888888888------10101010---------------------|



L
------------------------------------------------------------------------------------------|
------------------------------------------------------------------------------------------|
------------------------------------------------------------------------------------------|
-----999910101010----999910101010----9999----9999101010109999--------99991010101012121212-|
-7777------------7777------------7777----8888----------------10101010---------------------|
------------------------------------------------------------------------------------------|

R
--------------------------------------------------------------------------------------------|
--------------------------------------------------------------------------------------------|
--------------------------------------------------------------------------------------------|
--------------------------------------------------------------------------------------------|
-7777999910101010777799991010101077779999------------1010991010101010101010-----------------|
-----------------------------------------888888888888-----------------------1010101010101010|

L
---------------------------------------------------------------------------------------|
---------------------------------------------------------------------------------------|
---------------------------------------------------------------------------------------|
-----999910101010----999910101010----9999----9999101010109999--------999910101012121212|
-7777------------7777------------7777----8888----------------10101010------------------|
---------------------------------------------------------------------------------------|

R
--------------------------------------------------------------------------------------|
--------------------------------------------------------------------------------------|
--------------------------------------------------------------------------------------|
-------------------------------------------------------------------------------9999---|
-7777999910101010777799991010101077779999------------101099--------999910101010-------|
-----------------------------------------888888888888------10101010-------------------|



3:31


--------------------------------------------------------------------------|
--------------------------------------------------------------------------|
--------------------------------------------------------------------------|
-7-7-7-7-7-7-9-10-7-7-7-7-7-7-9-10-------------10-10-12-12-12-12-11-11-6--|
-0-0-0-0-0-0-0--0-0-0-0-0-0-0-0--0-8-8-8-8-8-8--0--0--0--0--0--0--0--0-0--|
-----------------------------------6-6-6-6-6-6----------------------------|



---------------------------------------------------------------|
---------------------------------------------------------------|
---------------------------------------------------------------|
-7-7-7-7-7-7-9-10-7-7-7-7-7-7-9-10-12-11--13-12--14-13--6------|
-0-0-0-0-0-0-0--0-0-0-0-0-0-0-0--0--0--0---0--0---0--0--6-8-10-|
---------------------------------------------------------------|


--------------------------------------------------------------------------|
--------------------------------------------------------------------------|
--------------------------------------------------------------------------|
-7-7-7-7-7-7-9-10-7-7-7-7-7-7-9-10-------------10-10-12-12-12-12-11-11-6--|
-0-0-0-0-0-0-0--0-0-0-0-0-0-0-0--0-8-8-8-8-8-8--0--0--0--0--0--0--0--0-0--|
-----------------------------------6-6-6-6-6-6----------------------------|



-----------------------------------------------------------------|
-----------------------------------------------------------------|
-----------------------------------------------------------------|
-7-7-7-7-7-7-9-10-7-7-7-7-7-7-9-10-12-11--13-12--14-13--6-6------|
-0-0-0-0-0-0-0--0-0-0-0-0-0-0-0--0--0--0---0--0---0--0--6-6-8-10-|
-----------------------------------------------------------------|




--------------------------------------------------------------------------|
--------------------------------------------------------------------------|
--------------------------------------------------------------------------|
-7-7-7-7-7-7-9-10-7-7-7-7-7-7-9-10-------------10-10-12-12-12-12-11-11-6--|
-0-0-0-0-0-0-0--0-0-0-0-0-0-0-0--0-8-8-8-8-8-8--0--0--0--0--0--0--0--0-0--|
-----------------------------------6-6-6-6-6-6----------------------------|



----------------------------------------------------------------------------------|
----------------------------------------------------------------------------------|
----------------------------------------------------------------------------------|
-7-7-7-7-7-7-9-10-7-7-7-7-7-7-9-10-12-12-11-11--13-13-12-12--14-14-13-13-6-6------|
-0-0-0-0-0-0-0--0-0-0-0-0-0-0-0--0--0--0--0--0---0--0--0--0---0--0--0--0-6-6-8-10-|
----------------------------------------------------------------------------------|




--------------------------------------------------------------------------|
--------------------------------------------------------------------------|
--------------------------------------------------------------------------|
-7-7-7-7-7-7-9-10-7-7-7-7-7-7-9-10-------------10-10-12-12-12-12-11-11-6--|
-0-0-0-0-0-0-0--0-0-0-0-0-0-0-0--0-8-8-8-8-8-8--0--0--0--0--0--0--0--0-0--|
-----------------------------------6-6-6-6-6-6----------------------------|



---------------------------------------------------------------------------------|
---------------------------------------------------------------------------------|
---------------------------------------------------------------------------------|
-7-7-7-7-7-7-9-10-7-7-7-7-7-7-9-10-12-12-11-11--13-13-12-12--14-14-13-13-6-------|
-0-0-0-0-0-0-0--0-0-0-0-0-0-0-0--0--0--0--0--0---0--0--0--0---0--0--0--0-6--8-10-|
---------------------------------------------------------------------------------|





-------------------------------------------------------------------------------------------------------------|
-------------------------------------------------------------------------------------------------------------|
-------------------------------------------------------------------------------------------------------------|
-------------------------------------------------------------------------------------------------------------|
-3----2-----------------------3----2-------5-7-6-8--3----2-----------------------3----2--------^-------^---^-|
-1--0-0---0-0-000-000-000-000-1--0-0---0-0-3-5-4-6--1--0-0---0-0-000-000-000-000-1--0-0---0-0-0-3-3-3-3-6-1-4|
    *     * * *** *** *** ***    *     * *             *     * * *** *** *** ***    *     * *

---------------------------------------------------------------------------------------------------------------|
---------------------------------------------------------------------------------------------------------------|
---------------------------------------------------------------------------------------------------------------|
---------------------------------------------------------------------------------------------------------------|
-3----2-----------------------3----2-------5-7-6-8--3----2-----------------------3----2--------^-------^---^---|
-1--0-0---0-0-000-000-000-000-1--0-0---0-0-3-5-4-6--1--0-0---0-0-000-000-000-000-1--0-0---0-0-0-3-3-3-3-6-1-4--|
    *     * * *** *** *** ***    *     * *             *     * * *** *** *** ***    *     * *



--------------------------------------------------------------------------|
--------------------------------------------------------------------------|
--------------------------------------------------------------------------|
-7-7-7-7-7-7-9-10-7-7-7-7-7-7-9-10-------------10-10-12-12-12-12-11-11-6--|
-0-0-0-0-0-0-0--0-0-0-0-0-0-0-0--0-8-8-8-8-8-8--0--0--0--0--0--0--0--0-0--|
-----------------------------------6-6-6-6-6-6----------------------------|



----------------------------------------------------------------------------------|
----------------------------------------------------------------------------------|
----------------------------------------------------------------------------------|
-7-7-7-7-7-7-9-10-7-7-7-7-7-7-9-10-12-12-11-11--13-13-12-12--14-14-13-13-6-6------|
-0-0-0-0-0-0-0--0-0-0-0-0-0-0-0--0--0--0--0--0---0--0--0--0---0--0--0--0-6-6-8-10-|
----------------------------------------------------------------------------------|





-------------------------------------------------------------------------------------------|
-------------------------------------------------------------------------------------------|
-------------------------------------------------------------------------------------------|
-777777777777991010-777777777777991010--------------10101010121212121212121211111111-6666--|
-00000000000000-0-0-00000000000000-0-0-888888888888--0-0-0-0-0-0-0-0-0-0-0-0-0-0-0-0-0000--|
---------------------------------------666666666666----------------------------------------|



---------------------------------------------------------------------------------------------------|
---------------------------------------------------------------------------------------------------|
---------------------------------------------------------------------------------------------------|
-777777777777991010-777777777777991010-12121212-11111111-13131313-12121212-14141414-13131313-6-----|
-00000000000000-0-0-00000000000000-0-0--0-0-0-0--0-0-0-0--0-0-0-0--0-0-0-0--0-0-0-0--0-0-0-0-6-8-10|
---------------------------------------------------------------------------------------------------|
                                                                                               *  *
---------------------------------------------|
---------------------------------------------|
---------------------------------------------|
-12-11--13-12--14-13--6----------------------|
--0--0---0--0---0--0--6-8-10--7----7---------|
------------------------------5----5---\-----|
                        *  *





Suggest correction
Give kudos to tab author, rate the tab!
1 2 3 4 5
comments
print report bad tab
guest
You may want to rate the tab now too:
select rating
Wanna post a correction for this tab? Suggest correction