Oops, an error
Loading. Please wait.

Filthy Little Secret Bass Tab

version 1
version 1

Whole song

Interactive

603 views 1 this week
no commentswrite comment
1 2 3 4 5
3 more votes to show rating
add to favorites
launch autoscroll
font size
0
reset
guitar tuner
Autoscroll
slow
fast
+/-
esc
set tempo
stop
Help us to improve Ultimate-Guitar.com Take our survey!
×
Author
Difficulty
intermediate
Cradle of Filth -Filthy Little Secret 
Tuning FCGC

	Bass plays different
|--------------------------------------------------------------|-----------|
|*------------------------------------------------------------*|-53131-----|
|*----------------1-11-1-1---10-----------------3-33-333-1-310*|------5313-|
|-5-55-5-55-5-55-5--------3-3---5-55-5-55-5-55-5---------------|-----------|
 
2X
|----------------------------------------------------------------------|
|*---------------------------------------------------------------------|
|*3333333333333333-0000000000000000-3333333333333333-66666666655556655-|
|----------------------------------------------------------------------|

 2X
|----------------|
|----------------|
|---4-3------4-3-|
|-4------4-5-----|
 
2X (lot of 7s and 10s just listen 
|-----------------------------------------------------------------|
|-----------------------------------------------------------------|
|-77777777777777777777777777777777---------------7777777777777777-|
|---------------------------------10"15MoreTimes"-----------------|
 
    2X						2X
|---------------------------------|-----------------------------------------
|--------------------------------*|-----------------------------------------
|-------------3202---------------*|------------320--------------------------
|222222222222----2222222222224545|222222222222---52222222222224542--55-54-2-
 
3X
|-------------------------------|--------------------------------|
|-------------------------------|--------------------------------|
|-----------------1-11-1-1---10-|-----------------3-33-333-1-310-|
|-5-55-5-55-5-55-5--------3-3---|-5-55-5-55-5-55-5---------------|
 
4X								
1st v 
2nd v ending
--------------------------------|------------------------------------------|
--------------------------------|*----------------------------------------*|
55555555555555553333333333333333|*----------------------------------------*|
--------------------------------|5757-878-878-737-5757-878-10-10-12121212-5|
2X
|----------------|
|----------------|
|---4-3------4-3-|
|-4------4-5-----|
 
2X
|----------------------------------------------------------------------|
|----------------------------------------------------------------------|
|-7777777777777777777777"10MoreTimes"-----------------7777777777777777-|
|----------------------------101010101010"10MoreTomes"-----------------|
 
2X						2X
|----------------------------------|----------------------------------|
|---------------------------------*|----------------------------------|
|-------------3202----------------*|-------------320------------------|
|-222222222222----2222222222224545-|-222222222222---52222222222224542-|

1st v 
2nd v ending
|-------------------------------------|--|----------|
|*------------------------------------|--|---------*|
|*------------------------------------|--|---------*|
|-5-757-878-878-7-3-7-5-757-878-10-10-|12|-121212-5-|

Suggest correction
Give kudos to tab author, rate the tab!
1 2 3 4 5
comments
print report bad tab
guest
You may want to rate the tab now too:
select rating
Wanna post a correction for this tab? Suggest correction