Oops, an error
Loading. Please wait.

Filthy Little Secret Tab

version 1
version 1

Whole song

Interactive

3,506 views 1 this week
5 commentsread comments
1 2 3 4 5
x 5
add to favorites
launch autoscroll
font size
0
reset
how to read this tab
guitar tuner
Autoscroll
slow
fast
+/-
esc
set tempo
stop
Help us to improve Ultimate-Guitar.com Take our survey!
×
Artist: Cradle of Filth
Song: Filthy Little Secret
Album: Nymphetamine
Tabbed by GPFM

This is my first tab its its probably shitty as hell, but one thing I know is right is
the intro. I'm sorry if it's not exact, you'll probably have to find the rhythm. But if
you like it than great! Please email me at cradleofbs@gmail.com and tell me, please. I'd
really like to know how my first tab did. Enjoy.

Tuning (low to high): DADGBe

Intro
(Guitar 1)
e|-------------------------------------------------|
B|-------------------------------------------------|
G|-------------------------------------------------|
D|-3333-3333-8888-666-8-5--3333-3333-6666-111-6-5--|
A|-3333-3333-8888-666-8-5--3333-3333-6666-111-6-5--|
D|-3333-3333-8888-666-8-5--3333-3333-6666-111-6-5--|x2

(Guitar 2) Play the following after the intro:
G|-10-8-6-8-6-5-6-|

(Guitar 1)
e|-------------------------------------------------------|
B|-------------------------------------------------------|
G|-------------------------------------------------------|
D|-8888-8888-5555-5555-8888-5555-11 11 11 11-10 10 10 10-|
A|-8888-8888-5555-5555-8888-5555-11 11 11 11-10 10 10 10-|
D|-8888-8888-5555-5555-8888-5555-11 11 11 11-10 10 10 10-|x2

(Guitar 2) Play the following with the previous part G1 is playing:
e|------------------------------------|
B|--6/7\6-4-6--7-6-4-9-7-6--6/7\6-4-6-|
G|-3-----------------------3----------|x2

(Guitar 1)
e|------------------|
B|------------------|
G|------------------|
D|-2~-9-8--2~-3-9-8-|
A|-2~-9-8--2~-3-9-8-|
D|-2~-9-8--2~-3-9-8-|x2

That's all I got. Please email me and tell me what you think. I'm still working on the rest.
Suggest correction
comments
print report bad tab
5 comments total. Showing first comments.
0 reply
Jaykib 20 Jan 18, 2006 04:18 PM

Actually the intro is not right, Paul Allender and James McIlroy used Down Two Steps in this song, and it's using two strings.
Here I'll show you some of the correct first portion of the intro;
|----------------------------------------------------|
|----------------------------------------------------|
|----------------------------------------------------|
|---------------------------7--7-7--7--4-5--5-7-5-4--|
|-7--7-7--7--7-7--7-7--7--5-5--5-5--5--2-3--3-5-3-2--|
|-5--5-5--5--5-5--5-5--5--3--------------------------|

0 reply
CRADLEOF FEICES 10 May 06, 2006 10:19 PM

no this intro is right keep up tha good work

0 reply
Gate Serpent 10 Dec 04, 2006 06:52 PM

Great job with this!!!!!!! the only wrong thing i see is that it's not finished!!!

guest
You may want to rate the tab now too:
select rating
Wanna post a correction for this tab? Suggest correction