Oops, an error
Loading. Please wait.

Filthy Little Secret Tab

version 2
version 2

Whole song

Interactive

5,123 views 1 this week
3 commentsread comments
1 2 3 4 5
accurate
x 6
add to favorites
launch autoscroll
font size
0
reset
how to read this tab
guitar tuner
Autoscroll
slow
fast
+/-
esc
set tempo
stop
Help us to improve Ultimate-Guitar.com Take our survey!
×
Author
taBbed by:
atom lagman
(filthy13th:cain_666:jabris)
mota_box@yahoo.com

CRADLE OF FILTH RULEZZ!
tunning:(dropped D)
D A D G B e


|---------------------------|
|---------------------------|
|---------------------------|
|-3-333-3-333-8888-66-8-6-5-|
|-3-333-3-333-8888-66-8-6-5-|
|-3-333-3-333-8888-66-8-6-5-|

|---------------------------|
|---------------------------|
|---------------------------|
|-3-333-3-333-6666-111-6-5--|
|-3-333-3-333-6666-111-6-5--|
|-3-333-3-333-6666-111-6-5--| 

Part2
|--------------------|
|--------------------|
|--------------------|
|--------------------|
|-8-6-4-6-4-3-4-3-4--|
|--------------------|

Part 3
|--------------------------------|
|---6h7-6-4-6-424---7-6-4--9-7-6-|
|-3------------------------------|
|--------------------------------|
|--------------------------------|
|--------------------------------|
         (All Tremelo)

Part 4
|-----------------|
|-----------------|
|-----------------|
|-2--9-8--2-3-9-8-|
|-2--9-8--2-3-9-8-|
|-2--9-8--2-3-9-8-|

Part 5
|--------------------------------------|
|--------------------------------------|
|--------------------------------------|
|-0-3-2--0-3-2-5-3-2--3-2--0-3-2-5-3-2-|
|------4------------1----4-------------|
|--------------------------------------|

Part 6
|-------------------------------------------|
|-------------------------------------------|
|------------2-0-3-2-0----5-3-2---2-0-3-2-0-|
|-0-3-2---0-------------3-------0-----------|
|-------4-----------------------------------|
|-------------------------------------------|
              (All Tremelo)

Part 7
|---------------------------------|
|---------------------------------|
|---------------------------------|
|-0-0-000-0-0-000-0-0-000-8-7-5-7-|
|-0-0-000-0-0-000-0-0-000-8-7-5-7-|
|-0-0-000-0-0-000-0-0-000-8-7-5-7-|

|---------------------------------|
|---------------------------------|
|---------------------------------|                     
|-0-0-000-0-0-000-0-0-000-2-3-2-3-| 
|-0-0-000-0-0-000-0-0-000-2-3-2-3-|
|-0-0-000-0-0-000-0-0-000-2-3-2-3-|

(Part 8)
|-8h11p8(8x)-13b-13-16-18b-8-11-13-4-6-8b-4-8~-|
|----------------------------------------------|
|----------------------------------------------|
|----------------------------------------------|
|----------------------------------------------|
|----------------------------------------------|

|--6-8-6-4-6-3-4-3-4-3-4-3-1--4-3-4----4-3---------------|
|----------------------------------4-4-----6-8-9-11-9-8--|
|-5------------------------------------------------------|
|--------------------------------------------------------|               
|--------------------------------------------------------|
|--------------------------------------------------------|

|---6-8-6-9-8-6-8-6-4-6-4-8-6-4-3-9-8-6-4-|
|-----------------------------------------|
|-5---------------------------------------|
|-----------------------------------------|
|-----------------------------------------|
|-----------------------------------------|

(part 9)
|------------------------------------|
|-6-8-6-9-8-6-8----------------------|
|-5-6-5-7-6-5-6-8-7-5-8-75-7-5-3-5-3-|
|------------------------------------|
|------------------------------------|
|------------------------------------|

(Part 10)
|------------------------------------|
|-6h8p6-8-8p6-4-6p4-6-8-6-4----------|
|------------------------------------|
|------------------------------------|
|------------------------------------|
|------------------------------------|

(Part 11)
|----------------------------------|
|----------------------------------|
|----------------------------------|
|-0---8-7-5-7--0--2-3-2-3----------|
|-0---8-7-5-7--0--2-3-2-3----------|
|-0---8-7-5-7--0--2-3-2-3----------|

(Part 12)
|---------------------------------|
|---------------------------------|
|---------------------------------|
|-3-5-3-5-6-5--6-6-5--6-5-1-5-----|
|-3-5-3-5-6-5--6-6-5--6-5-1-5-----|
|-3-5-3-5-6-5--6-6-5--6-5-1-5-----|


INTRO
Part 1 (2X)
Part 2

Verse
Part 3 (4X)

Bridge
Part 4 (2X)
Part 5 
Part 6

Chorus
Part 7 (2X)

Verse 2
Part 3 (4X)

Bridge 2
Part 4 (2x)
Part 5
Part 6

Chorus 
Part 7 (3x)

Solo
Part 8
Part 9 (4x)
Part 10 (4X)

Bridge 3
Part 4 (2X)
Part 5
Part 6
 
Chorus
Part 7 (2X)
PART 11 (2x)
paRT 12 (4x)

Suggest correction
comments
print report bad tab
3 comments total.
0 reply
CRADLEOF FEICES 10 wrote on May 6 2006, 10:06 pm

sick tab man sick song cradle rox!!!

0 reply
srpv92 31 wrote on July 29 2007, 05:20 am

good tab, the only thing I have to critise is the fact cradle play in full D not drop D

0 reply
wrokmygoat 10 wrote on January 19 2008, 05:25 pm

Sweet tab man keep goin!

guest
You may want to rate the tab now too:
select rating
Please do not post tabs as comments. Select "correction" instead!