Oops, an error
Loading. Please wait.

Foetus Of A New Day Kicking Tab

version 2
version 2

Whole song

Interactive

9,259 views 3 this week
3 commentsread comments
1 2 3 4 5
not so good
x 4
add to favorites
launch autoscroll
font size
0
reset
how to read this tab
guitar tuner
Tab Pro tools
  • play this tab
  • loop segment
  • change instrument
  • show fretboard
  • metronome
Autoscroll
slow
fast
+/-
esc
set tempo
stop
Contributor
Difficulty
------------------------------------------------------------------------------
Song Name: Foetus of a New Day Kicking
Band Name: Cradle Of FUCKING Filth
-------------------------------------------------------------------------------
Tabbed by: Marcpuss 
Email:ismynamemarcus@yahoo.com

Tuning:Standard

Riff 1
e|-----------------------------------------------|
B|-----------------------------------------------|
G|-----------------------------------------------|
D|-----------------------5h7p-4-2~---------------|
A|--55--55--5--55--55--5-----------5-6-5-3~-356--|
E|-7---7---7--8---8---8--------------------------|

e|---------------------------------------------------|
B|---------------------------------------------------|
G|---------------------------------------------------|
D|-----------------------5h7p-4-2~-------------------|
A|--55--55--5--55--55--5-----------10-8h10p-6-5~-356-|
E|-7---7---7--8---8---8------------------------------|



Riff 2
e|----------------------------------------|
B|----------------------------------------|
G|----------------------------------------|
D|-5-8-7---5-8-5-7---5-8-7----------------|
A|-3-6-5---3-6-3-5---3-6-5----------------|
E|---------------------------0-2-5-3b-2-0-|



RIff 3
e|------------------------------------------------------------------------------|
B|------------------------------------------------------------------------------|
G|------------------------------------------------------------------------------|
D|------------------------------------------------------------------------------|
A|--7-10-9-10~-9-10-9-7-10-9-5~-9-10-9-7-10-9-12~-12-10-9-7-10-9-5-11h12-10-9-5-|
E|------------------------------------------------------------------------------|



Riff 4
e|------------------------------------|
B|------------------------------------|
G|------------------------------------|
D|-2~------5~--------4~---------------|
A|-2~------5~--------4~---------------|
E|-0~-0-2--3~-3-5-3--2~-5b-4-b7-5-4-5-|
      * *


Riff 5
e|------------------------------------------------------------------------------------|
B|------------------------------------------------------------------------------------|
G|------------------------------------------------------------------------------------|
D|--------------------------------------------------------14-17-16-17-19-17-16h17-14~-|
A|--7-10-9-10~-9-10-9-7-10-9-5~-9-10-9-7-10-9-12~-12-10-9-----------------------------|
E|------------------------------------------------------------------------------------|


Riff 1 x1
Riff 2 x3
Riff 1 x1
Riff 2 x3
Riff 1 x1
Riff 3 x1
Riff 4 x3
Riff 3 
Riff 5
Riff 1 x1

There u have it 
COF 4 LIFE!!!!!
Email me if u got any questions 
ps: Stick up for the name CRADLE OF FILTH 



===============================================================================
comments
print report bad tab
3 comments total.
+1 reply
wolf1990 wrote on November 26 2006, 09:42 am

is it just me or is the first riff tabbed upside down??

+1 reply
CKYBAMHIM1990 wrote on December 6 2006, 02:30 pm

....no its us... and its a bit wrong as well.

0 reply
MrFrench7777777 wrote on July 24 2009, 12:41 pm

ok listen to the song.... then play this tab. sounds completely WRONG.

I want to post or [tab]
guest
You may want to rate the tab now too:
select rating
Please do not post tabs as comments. Select "correction" instead!