Oops, an error
Loading. Please wait.

Foetus Of A New Day Kicking Tab

version 3
version 3

Whole song

Interactive

5,119 views 3 this week
2 commentsread comments
1 2 3 4 5
accurate
x 4
add to favorites
launch autoscroll
font size
0
reset
how to read this tab
guitar tuner
Tab Pro tools
  • play this tab
  • loop segment
  • change instrument
  • show fretboard
  • metronome
×
Best way to learn
"Foetus Of A New Day Kicking"
Autoscroll
slow
fast
+/-
esc
set tempo
stop
Contributor
Difficulty
Tuning
intermediate
D A D G B E
                         CRADLE OF FILTH
                  THE FOETUS OF A NEW DAY KICKING

 Album:Thornography
 tabed by:Ben
 Drop D tuning

 Intro/Chorus
 Gtr 1
 e--7---7---7---8---8---8----------------------------------|
 B---55--55--5---55--55--5--------------5-6-5-3-5-6-5------|
 G--------------------------5-6h5-2------------------------|
 D---------------------------------------------------------|
 A---------------------------------------------------------|
 D---------------------------------------------------------|

 Gtr 2
 e---------------------------------------------------------|
 B---------------------------------------------------------|
 G---------------------------------------------------------|
 D--2------------5---------5/4-0---------7-9-0-10-0-9-7----|
 A--2------------3---------3/2-0---------7-9-0-10-0-9-7----|
 D--2--------------------------0---------7-9-0-10-0-9-7----|

 Gtr 1                                    [very fast]
 e--7---7---7---8---8---8----------------------------------|
 B---55--55--5---55--55--5--------------10-810h10h-5-3-5-6-|
 G--------------------------5-6h5-2------------------------|
 D---------------------------------------------------------|
 A---------------------------------------------------------|
 D---------------------------------------------------------|

 Gtr 2
 e---------------------------------------------------------|
 B---------------------------------------------------------|
 G---------------------------------------------------------|
 D--2------------5---------5/4-0---------7-9-0-10-0-9-7----|
 A--2------------3---------3/2-0---------7-9-0-10-0-9-7----|
 D--2--------------------------0---------7-9-0-10-0-9-7----|

 Gtr 1
 e--7---7---7---8---8---8----------------------------------|
 B---55--55--5---55--55--5--------------5-6-5-3-5-6-5------|
 G--------------------------5-6h5-2------------------------|
 D---------------------------------------------------------|
 A---------------------------------------------------------|
 D---------------------------------------------------------|

 Gtr 1                                    [very fast]
 e--7---7---7---8---8---8----------------------------------|
 B---55--55--5---55--55--5--------------10-810h10h-5-3-5-6-|
 G--------------------------5-6h5-2------------------------|
 D---------------------------------------------------------|
 A---------------------------------------------------------|
 D---------------------------------------------------------|

 Gtr 2
 e---------------------------------------------------------|
 B---------------------------------------------------------|
 G---------------------------------------------------------| x2
 D-2--2--245--5--5/4--7----------3--3--3--------------0----|
 A-2--2--223333333/2--7--7--7----3--3--3----5--5--5---0----|
 D-2222222------------77777777---33333333---5555555---0----|

 verse
 Gtr 1&2 0:28
 e--------------------------------------------------------|
 B--------------------------------------------------------|
 G--------------------------------------------------------|
 D-587-------5857--------587------------------------------|
 A-365-------3635--------365-------------0----------------|
 D------------------------------------1-3-4-3-1-----------|

 Gtr 1&2
 e--------------------------------------------------------|
 B--------------------------------------------------------|
 G--------------------------------------------------------| x3
 D-587-------5857---------587-----------------------------|
 A-365-------3635---------365------------0----------------|
 D----00-0000----00-0000-----00-0000--1-3-4-3-1-----------|

 Chorus x2
 Gtr 1 0:56
 e--7---7---7---8---8---8----------------------------------|
 B---55--55--5---55--55--5--------------5-6-5-3-5-6-5------|
 G--------------------------5-6h5-2------------------------|
 D---------------------------------------------------------|
 A---------------------------------------------------------|
 D---------------------------------------------------------|

 Gtr 2
 e---------------------------------------------------------|
 B---------------------------------------------------------|
 G---------------------------------------------------------|
 D-2--2--245--5--5/4--7----------3--3--3--------------0----|
 A-2--2--223333333/2--7--7--7----3--3--3----5--5--5---0----|
 D-2222222------------77777777---33333333---5555555---0----|

 Gtr 1                                    [very fast]
 e--7---7---7---8---8---8----------------------------------|
 B---55--55--5---55--55--5--------------10-810h10h-5-3-5-6-|
 G--------------------------5-6h5-2------------------------|
 D---------------------------------------------------------|
 A---------------------------------------------------------|
 D---------------------------------------------------------|

 Gtr 2
 e---------------------------------------------------------|
 B---------------------------------------------------------|
 G---------------------------------------------------------|
 D-2--2--245--5--5/4--7----------3--3--3--------------0----|
 A-2--2--223333333/2--7--7--7----3--3--3----5--5--5---0----|
 D-2222222------------77777777---33333333---5555555---0----|

 Verse2
 Gtr 1&2 1:23
 e--------------------------------------------------------|
 B--------------------------------------------------------|
 G--------------------------------------------------------| x2
 D-587-------5857---------587-----------------------------|
 A-365-------3635---------365------------0----------------|
 D----00-0000----00-0000-----00-0000--1-3-4-3-1-----------|

 Gtr 1&2
 e--------------------------------------------------------|
 B--------------------------------------------------------|
 G--------------------------------------------------------|
 D-587-------5857--------587------------------------------|
 A-365-------3635--------365-------------0----------------|
 D---------------00-0000----00-0000---1-3-4-3-1-----------|

  Gtr 1&2
 e--------------------------------------------------------|
 B--------------------------------------------------------|
 G--------------------------------------------------------|
 D-587-------5857---------587-----------------------------|
 A-365-------3635---------365------------0----------------|
 D----00-0000----00-0000-----00-0000--1-3-4-3-1-----------|

 Chorus x2
 Gtr 1 1:51
 e--7---7---7---8---8---8----------------------------------|
 B---55--55--5---55--55--5--------------5-6-5-3-5-6-5------|
 G--------------------------5-6h5-2------------------------|
 D---------------------------------------------------------|
 A---------------------------------------------------------|
 D---------------------------------------------------------|

 Gtr 2
 e---------------------------------------------------------|
 B---------------------------------------------------------|
 G---------------------------------------------------------|
 D-2--2--245--5--5/4--7----------3--3--3--------------0----|
 A-2--2--223333333/2--7--7--7----3--3--3----5--5--5---0----|
 D-2222222------------77777777---33333333---5555555---0----|

 Gtr 1                                    [very fast]
 e--7---7---7---8---8---8----------------------------------|
 B---55--55--5---55--55--5--------------10-810h10h-5-3-5-6-|
 G--------------------------5-6h5-2------------------------|
 D---------------------------------------------------------|
 A---------------------------------------------------------|
 D---------------------------------------------------------|

 Gtr 2
 e---------------------------------------------------------|
 B---------------------------------------------------------|
 G---------------------------------------------------------|
 D-2--2--245--5--5/4--7----------3--3--3--------------0----|
 A-2--2--223333333/2--7--7--7----3--3--3----5--5--5---0----|
 D-2222222------------77777777---33333333---5555555---0----|

 Harmony Brakedown
 Gtr1 (Gtr 2 comes in 2nd time) 2:18
 e--------------------------------------------------------------------|
 B--------------------------------------------------------------------|
 G--------------------------------------------------------------------| x2
 D--------------------------------------------------------------------|
 A-7-10-9-10--9-10-9--7-10-9-5--5-10-9--7-10-9-12-12-10-9---10-9---12-|
 D--------------------------------------------------------10-----12---|

 Bridge
 Gtr 1&2 2:32
 e----------------------------------------|
 B----------------------------------------|
 G----------------------------------------|
 D-2x-x----5x-x-4x------------------------|
 A-2x-x----5x-x-4x------------------------|
 D-2x-x----5x-x-4x-x-55/75-4--------------|

 e----------------------------------------|
 B----------------------------------------|
 G----------------------------------------|
 D-2x-x----5x-x-4x------------------------|
 A-2x-x----5x-x-4x------------------------|
 D-2x-x----5x-x-4x-x-7-9-7-10-7-9-7-------|

 e----------------------------------------|
 B----------------------------------------|
 G----------------------------------------|
 D-2x-x----5x-x-4x------------------------|
 A-2x-x----5x-x-4x------------------------|
 D-2x-x----5x-x-4x-x-55/75-4--------------|

 e----------------------------------------|
 B----------------------------------------|
 G----------------------------------------|
 D-2x-x----5x-x-4x------------------------|
 A-2x-x----5x-x-4x------------------------|
 D-2x-x----5x-x-4x-x-7-9-7-10-7-9-7-------|

 Harmony Brakedown
 Gtr1 (Gtr 2 comes in 2nd time)2:59
 e--------------------------------------------------------------------|
 B--------------------------------------------------------------------|
 G--------------------------------------------------------------------| x2
 D--------------------------------------------------------------------|
 A-7-10-9-10--9-10-9--7-10-9-5--5-10-9--7-10-9-12-12-10-9---10-9---12-|
 D--------------------------------------------------------10-----12---|

 Chorus x4
 Gtr 1 3:13
 e--7---7---7---8---8---8----------------------------------|
 B---55--55--5---55--55--5--------------5-6-5-3-5-6-5------|
 G--------------------------5-6h5-2------------------------|
 D---------------------------------------------------------|
 A---------------------------------------------------------|
 D---------------------------------------------------------|

 Gtr 2
 e---------------------------------------------------------|
 B---------------------------------------------------------|
 G---------------------------------------------------------|
 D-2--2--245--5--5/4--7----------3--3--3--------------0----|
 A-2--2--223333333/2--7--7--7----3--3--3----5--5--5---0----|
 D-2222222------------77777777---33333333---5555555---0----|

 Gtr 1                                    [very fast]
 e--7---7---7---8---8---8----------------------------------|
 B---55--55--5---55--55--5--------------10-810h10h-5-3-5-6-|
 G--------------------------5-6h5-2------------------------|
 D---------------------------------------------------------|
 A---------------------------------------------------------|
 D---------------------------------------------------------|

 Gtr 2
 e---------------------------------------------------------|
 B---------------------------------------------------------|
 G---------------------------------------------------------|
 D-2--2--245--5--5/4--7----------3--3--3--------------0----|
 A-2--2--223333333/2--7--7--7----3--3--3----5--5--5---0----|
 D-2222222------------77777777---33333333---5555555---0----|
comments
print report bad tab
2 comments total.
0 reply
YoungLink wrote on April 19 2008, 05:37 pm

at the end of song you have to play 17 and viberate on the second string (b)

0 reply
YoungLink wrote on May 21 2008, 02:08 pm

Me and my band made a few corrections to make it sound like foetus if you want to know wat we did to make it better email me at Link1994@msn.com peace

I want to post or [tab]
guest
You may want to rate the tab now too:
select rating
Please do not post tabs as comments. Select "correction" instead!