Oops, an error
Loading. Please wait.

Foetus Of A New Day Kicking Tab

version 4
version 4

Whole song

Interactive

8,050 views 1 this week
6 commentsread comments
1 2 3 4 5
excellent!
x 8
add to favorites
launch autoscroll
font size
0
reset
how to read this tab
guitar tuner
Tab Pro tools
  • play this tab
  • loop segment
  • change instrument
  • show fretboard
  • metronome
×
Best way to learn
"Foetus Of A New Day Kicking"
Autoscroll
slow
fast
+/-
esc
set tempo
stop
Contributor
#----------------------------------PLEASE NOTE---------------------------------#
#This file is the author's own work and represents their interpretation of the #
#song. You may only use this file for private study, scholarship, or research. #
#------------------------------------------------------------------------------##

                         THE FOETUS OF A NEW DAY KICKING
                         As recorded by Cradle of Filth
                       (From the 2006 Album THORNOGRAPHY)

Transcribed by GuitarHero_JP

Gtr I (D G C F A D) - 'Guitar I'
Gtr II (D G C F A D) - 'Guitar II'

This deffinatly sounds 100% correct, if you think something dosn't sound right 
please leave a comment.

 Intro
  Q=140
 4/4
  Gtr I
  E E E E E E E E    E  E E E E E E E
|-9-----9-----9---|-10------9-----9---|
|---7-7---7-7---7-|-----7-7---7-7---7-|
|-----------------|-------------------|
|-----------------|-------------------|
|-----------------|-------------------|
|-----------------|-------------------|
|
| Gtr II
| W                  H.           E E
|-----------------|-------------------|
|-----------------|-------------------|
|-----------------|--7------------7-6-|
|-4---------------|--7------------7-6-|
|-4---------------|--5------------5-4-|
|-2---------------|-------------------|


  E S S  E H    +E     E   E  E Q  E  E  E
|-------------------|-----------------------|
|-------------------|-----------------------|
|-7-9-7-------------|-11--12-11-9--9-11-12--|
|-------11-9----(9)-|-----------------------|
|-------------------|-----------------------|
|-------------------|-----------------------|
|
| W                    Q.       H       +E
|-------------------|-----------------------|
|-------------------|-----------------------|
|-4-----------------|--6--------7-------(7)-|
|-4-----------------|--6--------7-------(7)-|
|-2-----------------|--4--------5-------(5)-|
|-------------------|-----------------------|


  E E E E E E E E    E  E E E E E E E
|-9-----9-----9---|-10------9-----9---|
|---7-7---7-7---7-|-----7-7---7-7---7-|
|-----------------|-------------------|
|-----------------|-------------------|
|-----------------|-------------------|
|-----------------|-------------------|
|
| W                  H.           E E
|-----------------|-------------------|
|-----------------|-------------------|
|-----------------|--7------------7-6-|
|-4---------------|--7------------7-6-|
|-4---------------|--5------------5-4-|
|-2---------------|-------------------|


                           |--3--|
  E S S  E H    +E     E   S  S  S E  Q  E  E  E
|-------------------|------------------------------|
|-------------------|-12--10h12p10-8---------------|
|-7-9-7-------------|----------------11--9-11-12---|
|-------11-9----(9)-|------------------------------|
|-------------------|------------------------------|
|-------------------|------------------------------|
|
| W                    Q.             H       +E
|-------------------|------------------------------|
|-------------------|------------------------------|
|-4-----------------|--6--------------7-------(7)--|
|-4-----------------|--6--------------7-------(7)--|
|-2-----------------|--4--------------5-------(5)--|
|-------------------|------------------------------|


 Main Riff
  E E E E E E E E    E E E E E E E E
|-9-----9-----9---|-10-----9-----9---|
|---7-7---7-7---7-|----7-7---7-7---7-|
|-----------------|------------------|
|-----------------|------------------|
|-----------------|------------------|
|-----------------|------------------|
|
|   PM|   PM|   PM     PM|   PM|
| E E E E E E E E    E E E E E E E E
|-----------------|------------------|
|-----------------|------------------|
|-----------------|------------------|
|-----------------|--7-----7-----7---|
|-4-----4-----4---|--5-5-5-5-5-5-5-4-|
|-2-2-2-2-2-2-2-2-|------------------|


  E S S  E H      +E     E  E  E Q   E  E  E
|---------------------|------------------------|
|---------------------|------------------------|
|-7-9-7---------------|-11-12-11-9---9-11-12---|
|-------11-9------(9)-|------------------------|
|---------------------|------------------------|
|---------------------|------------------------|
|
|   PM|    PM|     PM       PM|    PM|       PM
| E E E  E E E E   E     E  E  E E E E  E    E
|---------------------|------------------------|
|---------------------|------------------------|
|---------------------|------------------------|
|-4------4-----4------|------------------------|
|-2-2-2--2-2-2-2---2--|--5-------7------7------|
|---------------------|--3--3--3-5-5-5--5----5-|


  E E E E E E E E    E E E E E E E E
|-9-----9-----9---|-10-----9-----9---|
|---7-7---7-7---7-|----7-7---7-7---7-|
|-----------------|------------------|
|-----------------|------------------|
|-----------------|------------------|
|-----------------|------------------|
|
|   PM|   PM|   PM     PM|   PM|
| E E E E E E E E    E E E E E E E E
|-----------------|------------------|
|-----------------|------------------|
|-----------------|------------------|
|-----------------|--7-----7-----7---|
|-4-----4-----4---|--5-5-5-5-5-5-5-4-|
|-2-2-2-2-2-2-2-2-|------------------|


                             |--3--|
  E S S  E H       +E     E  S  S  S E  Q   E  E  E
|----------------------|-----------------------------|
|----------------------|-12-10h12p10-8---------------|
|-7-9-7----------------|---------------11---9-11-12--|
|-------11-9-------(9)-|-----------------------------|
|----------------------|-----------------------------|
|----------------------|-----------------------------|
|
|   PM--|    PM|    PM       PM|     PM|
| E E    E E E E E  E     E  E  E  E E  E E    E
|----------------------|-----------------------------|
|----------------------|-----------------------------|
|----------------------|-----------------------------|
|-4--------4-----4-----|-----------------------7-----|
|-2-2----2-2-2-2-2--2--|--5--------7------7----5-----|
|----------------------|--3--3--3--5-5--5-5----------|


 Pre-Verse
  Gtrs I, II
  E  E E E H      E  E E E H      E  E E E H      E E E Q  Q  E
|---------------|---------------|---------------|-----------------|
|---------------|---------------|---------------|-----------------|
|---------------|---------------|---------------|-----------------|
|-7-10-9--------|-7-10-7-9------|-7-10-9--------|-----------------|
|-5--8-7--------|-5--8-5-7------|-5--8-7--------|-----------------|
|---------------|---------------|---------------|-0-1-4-3--2--1---|


   Verse
    E  E E S E S S S E E   E  E E E E S E S S S
||-----------------------|----------------------|
||o----------------------|----------------------|
||-----------------------|----------------------|
||--7-10-9---------------|-7-10-7-9-------------|
||o-5--8-7---------------|-5--8-5-7-------------|
||---------0-0-0-0-0-0-0-|----------0-0-0-0-0-0-|


  E  E E S E S S S E E   E E E Q  Q  E    3x
|----------------------|------------------||
|----------------------|-----------------o||
|----------------------|------------------||
|-7-10-9---------------|------------------||
|-5--8-7---------------|-----------------o||
|--------0-0-0-0-0-0-0-|-0-1-4-3--2--1----||


   Chorus
    Gtr I
    E E E E E E E E    E E E E E E E E
||--9-----9-----9---|-10-----9-----9---|
||o---7-7---7-7---7-|----7-7---7-7---7-|
||------------------|------------------|
||------------------|------------------|
||o-----------------|------------------|
||------------------|------------------|
|
|   Gtr II
|     PM|   PM|   PM     PM|   PM|
|   E E E E E E E E    E E E E E E E E
||------------------|------------------|
||o-----------------|------------------|
||------------------|------------------|
||------------------|--7-----7-----7---|
||o-4-----4-----4---|--5-5-5-5-5-5-5-4-|
||--2-2-2-2-2-2-2-2-|------------------|


  E S S  E H       +E     E  E  E Q   E  E  E
|----------------------|----------------------|
|----------------------|----------------------|
|-7-9-7----------------|-11-12-11-9---9-11-12-|
|-------11-9-------(9)-|----------------------|
|----------------------|----------------------|
|----------------------|----------------------|
|
|   PM--|    PM|    PM       PM|    PM|     PM
| E E    E E E E E  E     E  E  E E E E  E  E
|----------------------|----------------------|
|----------------------|----------------------|
|----------------------|----------------------|
|-4--------4-----4-----|----------------------|
|-2-2----2-2-2-2-2--2--|--5-------7------7----|
|----------------------|--3--3--3-5-5-5--5--5-|


  E E E E E E E E    E E E E E E E E
|-9-----9-----9---|-10-----9-----9---|
|---7-7---7-7---7-|----7-7---7-7---7-|
|-----------------|------------------|
|-----------------|------------------|
|-----------------|------------------|
|-----------------|------------------|
|
|   PM|   PM|   PM     PM|   PM|
| E E E E E E E E    E E E E E E E E
|-----------------|------------------|
|-----------------|------------------|
|-----------------|------------------|
|-----------------|--7-----7-----7---|
|-4-----4-----4---|--5-5-5-5-5-5-5-4-|
|-2-2-2-2-2-2-2-2-|------------------|


                             |--3--|
  E S S  E H       +E     E  S  S  S E  Q   E  E  E
|----------------------|------------------------------||
|----------------------|-12-10h12p10-8---------------o||
|-7-9-7----------------|---------------11---9-11-12---||
|-------11-9-------(9)-|------------------------------||
|----------------------|-----------------------------o||
|----------------------|------------------------------||
|
|   PM--|    PM|    PM       PM------|    PM|
| E E    E E E E E  E     E  E       E  E E E  E  E
|----------------------|------------------------------||
|----------------------|-----------------------------o||
|----------------------|------------------------------||
|-4--------4-----4-----|--------------------------7---||
|-2-2----2-2-2-2-2--2--|--5-------------7------7--5--o||
|----------------------|--3--3-------3--5-5-5--5------||


   Pre-Verse
    Gtrs I, II
    E  E E S E S S S E E   E  E E E E S E S S S
||-----------------------|----------------------|
||o----------------------|----------------------|
||-----------------------|----------------------|
||--7-10-9---------------|-7-10-7-9-------------|
||o-5--8-7---------------|-5--8-5-7-------------|
||---------0-0-0-0-0-0-0-|----------0-0-0-0-0-0-|


  E  E E S E S S S E E   E E E Q  Q  E
|----------------------|------------------||
|----------------------|-----------------o||
|----------------------|------------------||
|-7-10-9---------------|------------------||
|-5--8-7---------------|-----------------o||
|--------0-0-0-0-0-0-0-|-0-1-4-3--2--1----||


 Verse 2
  E  E E E H      E  E E E E S E S S S   E  E E S E S S S E E   E E E Q  Q  E
|---------------|----------------------|----------------------|---------------|
|---------------|----------------------|----------------------|---------------|
|---------------|----------------------|----------------------|---------------|
|-7-10-9--------|-7-10-7-9-------------|-7-10-9---------------|---------------|
|-5--8-7--------|-5--8-5-7-------------|-5--8-7---------------|---------------|
|---------------|----------0-0-0-0-0-0-|--------0-0-0-0-0-0-0-|-0-1-4-3--2--1-|


  E  E E S E S S S E E   E  E E E E S E S S S
|----------------------|----------------------|
|----------------------|----------------------|
|----------------------|----------------------|
|-7-10-9---------------|-7-10-7-9-------------|
|-5--8-7---------------|-5--8-5-7-------------|
|--------0-0-0-0-0-0-0-|----------0-0-0-0-0-0-|


  E  E E S E S S S E E   E E E Q  Q  E
|----------------------|---------------|
|----------------------|---------------|
|----------------------|---------------|
|-7-10-9---------------|---------------|
|-5--8-7---------------|---------------|
|--------0-0-0-0-0-0-0-|-0-1-4-3--2--1-|

Chorus

 Harmony
  Gtrs I, II
        ~                ~                ~
                                                               |-3-|
  E E E Q  E E E   E E E Q  E E E   E E E Q  E E E   E E E E E S S S E E
|----------------|----------------|----------------|---------------------|
|----------------|----------------|----------------|---------------------|
|---2-1-2--1-2-1-|---2-1------2-1-|---2-1/4--4-2-1-|---2-1---4-2h4p2-1---|
|-4--------------|-4-----2--2-----|-4--------------|-0-----0-----------2-|
|----------------|----------------|----------------|---------------------|
|----------------|----------------|----------------|---------------------|


  Gtr I
        ~                ~                ~
                                                               |-3-|
  E E E Q  E E E   E E E Q  E E E   E E E Q  E E E   E E E E E S S S E E
|----------------|----------------|----------------|---------------------|
|----------------|----------------|----------------|---------------------|
|---2-1-2--1-2-1-|---2-1------2-1-|---2-1/4--4-2-1-|---2-1---4-2h4p2-1---|
|-4--------------|-4-----2--2-----|-4--------------|-0-----0-----------2-|
|----------------|----------------|----------------|---------------------|
|----------------|----------------|----------------|---------------------|
|
| Gtr II
|       ~                ~                ~
|                                                              |-3-|
| E E E Q  E E E   E E E Q  E E E   E E E Q  E E E   E E E E E S S S E E
|----------------|----------------|----------------|---------------------|
|----------------|----------------|----------------|---------------------|
|---6-4-6--4-6-4-|---6-4------6-4-|---6-4/7--7-6-4-|---6-4---7-6h7p6-4---|
|-7--------------|-7-----6--6-----|-7--------------|-7-----7-----------7-|
|----------------|----------------|----------------|---------------------|
|----------------|----------------|----------------|---------------------|


   Bridge
    Gtrs I, II
            PM|                                     ~
    H.      E E   H    +E  E E E   W          E E E Q  E E E   4x
||--------------|----------------|----------|------------------||
||o-------------|----------------|----------|-----------------o||
||--------------|----------------|----------|------------------||
||--------------|----------------|----------|------------------||
||o-4-----------|-7----(7)-------|-6--------|-2-2-1-5--2-1----o||
||--2-------2-4-|-5----(5)-5-7-5-|-4--------|--------------3---||
                  ^Not sure about this power chord


 Harmony 2
  Gtrs I, II
        ~                ~                ~
                                                               |-3-|
  E E E Q  E E E   E E E Q  E E E   E E E Q  E E E   E E E E E S S S E E
|----------------|----------------|----------------|---------------------|
|----------------|----------------|----------------|---------------------|
|---2-1-2--1-2-1-|---2-1------2-1-|---2-1/4--4-2-1-|---2-1---4-2h4p2-1---|
|-4--------------|-4-----2--2-----|-4--------------|-0-----0-----------2-|
|----------------|----------------|----------------|---------------------|
|----------------|----------------|----------------|---------------------|


  Gtr I
        ~                ~
  E E E Q  E E E   E E E Q  E E E
|----------------|----------------|
|----------------|----------------|
|---2-1-2--1-2-1-|---2-1------2-1-|
|-4--------------|-4-----2--2-----|
|----------------|----------------|
|----------------|----------------|
|
| Gtr II
|       ~                ~
| E E E Q  E E E   E E E Q  E E E
|----------------|----------------|
|----------------|----------------|
|---6-4-6--4-6-4-|---6-4------6-4-|
|-7--------------|-7-----6--6-----|
|----------------|----------------|
|----------------|----------------|


        ~
                                   |--3--|
  E E E Q  E E E    E  E  E  E  E  S  S  S  E  E
|----------------|-------------------------------|
|----------------|-------------------------------|
|---2-1/4--4-2-1-|-----2--1-----4--2h=4p=2--1----|
|-4--------------|--0--------0-----------------2-|
|----------------|-------------------------------|
|----------------|-------------------------------|
|
|       ~
|                                  |--3--|
| E E E Q  E E E    E  E  E  E  E  S  S  S  E  E
|----------------|-------------------------------|
|----------------|-------------------------------|
|---6-4/7--7-6-4-|----14-13-14-16-14h16p14-13-14-|
|-7--------------|-16----------------------------|
|----------------|-------------------------------|
|----------------|-------------------------------|


   Last Chorus
    E E E E E E E E    E E E E E E E E
||--9-----9-----9---|-10-----9-----9---|
||o---7-7---7-7---7-|----7-7---7-7---7-|
||------------------|------------------|
||------------------|------------------|
||o-----------------|------------------|
||------------------|------------------|
|
|     PM|   PM|   PM     PM|   PM|
|   E E E E E E E E    E E E E E E E E
||------------------|------------------|
||o-----------------|------------------|
||------------------|------------------|
||------------------|--7-----7-----7---|
||o-4-----4-----4---|--5-5-5-5-5-5-5-4-|
||--2-2-2-2-2-2-2-2-|------------------|


  E S S  E H       +E     E  E  E Q   E  E  E
|----------------------|----------------------|
|----------------------|----------------------|
|-7-9-7----------------|-11-12-11-9---9-11-12-|
|-------11-9-------(9)-|----------------------|
|----------------------|----------------------|
|----------------------|----------------------|
|
|   PM--|    PM|    PM       PM|    PM|     PM
| E E    E E E E E  E     E  E  E E E E  E  E
|----------------------|----------------------|
|----------------------|----------------------|
|----------------------|----------------------|
|-4--------4-----4-----|----------------------|
|-2-2----2-2-2-2-2--2--|--5-------7------7----|
|----------------------|--3--3--3-5-5-5--5--5-|


  E E E E E E E E    E E E E E E E E
|-9-----9-----9---|-10-----9-----9---|
|---7-7---7-7---7-|----7-7---7-7---7-|
|-----------------|------------------|
|-----------------|------------------|
|-----------------|------------------|
|-----------------|------------------|
|
|   PM|   PM|   PM     PM|   PM|
| E E E E E E E E    E E E E E E E E
|-----------------|------------------|
|-----------------|------------------|
|-----------------|------------------|
|-----------------|--7-----7-----7---|
|-4-----4-----4---|--5-5-5-5-5-5-5-4-|
|-2-2-2-2-2-2-2-2-|------------------|


                             |--3--|
  E S S  E H       +E     E  S  S  S E  Q   E  E  E
|----------------------|------------------------------||
|----------------------|-12-10h12p10-8---------------o||
|-7-9-7----------------|---------------11---9-11-12---||
|-------11-9-------(9)-|------------------------------||
|----------------------|-----------------------------o||
|----------------------|------------------------------||
|
|   PM--|    PM|    PM       PM------|    PM|
| E E    E E E E E  E     E  E       E  E E E  E  E
|----------------------|------------------------------||
|----------------------|-----------------------------o||
|----------------------|------------------------------||
|-4--------4-----4-----|--------------------------7---||
|-2-2----2-2-2-2-2--2--|--5-------------7------7--5--o||
|----------------------|--3--3-------3--5-5-5--5------||


          ~~~~
   H      H       W
|---------------|------*|
|---------------|------*|
|-11----[11]----|------*|
|---------------|------*|
|---------------|------*|
|---------------|------*|
|
|  W              W
|---------------|------*|
|---------------|------*|
|---------------|------*|
|--4------------|------*|
|--4------------|------*|
|--2------------|------*|


Duration Legend
---------------
W - whole; H - half; Q - quarter; E - 8th; S - 16th; T - 32nd; X - 64th; a - acciaccatura
+ - note tied to previous; . - note dotted; .. - note double dotted
Uncapitalized letters represent notes that are staccato (1/2 duration)
Irregular groupings are notated above the duration line
Duration letters will always appear directly above the note/fret number it represents the
duration for.  Duration letters with no fret number below them represent rests.  Multi-
bar rests are notated in the form Wxn, where n is the number of bars to rest for.  Low
melody durations appear below the staff

Tablature Legend
----------------
 h   - hammer-on
 p   - pull-off
 b   - bend
 pb  - pre-bend
 r   - bend release (if no number after the r, then release immediately)
 /\  - slide into or out of (from/to "nowhere")
 s   - legato slide
 S   - shift slide
  - natural harmonic
[n]  - artificial harmonic
n(n) - tapped harmonic
 ~   - vibrato
 tr  - trill
 T   - tap
 TP  - trem. picking
 PM  - palm muting
\n/  - tremolo bar dip; n = amount to dip
 \n  - tremolo bar down
 n/  - tremolo bar up
/n\  - tremolo bar inverted dip
 =   - hold bend; also acts as connecting device for hammers/pulls
 <>  - volume swell (louder/softer)
 x   - on rhythm slash represents muted slash
 o   - on rhythm slash represents single note slash

Misc Legend
-----------
 |  - bar
||  - double bar
||o - repeat start
o|| - repeat end
*|  - double bar (ending)
 :  - bar (freetime)
 $  - Segno
 &  - Coda
Tempo markers -  = BPM(8/16=s8/s16), where s8 = swing 8ths, s16 = swing 16ths


***************************************************************************************
* Generated using Power Tab Editor by Brad Larsen - http://powertab.guitarnetwork.org *
***************************************************************************************
comments
print report bad tab
6 comments total. Showing first comments.
+2 reply
Ratt n' Roll wrote on April 9 2009, 09:52 am

Finally a good tab for this song, thanks, it's perfect-5 stars

+1 reply
Metal King wrote on April 15 2009, 08:25 pm

F***ing Awesome Tab!

+1 reply
Chaz-6(sic)6 wrote on August 21 2009, 01:24 pm

WOW!!!
Finally A Great Tab For This Song.
5 Stars

I want to post or [tab]
guest
You may want to rate the tab now too:
select rating
Please do not post tabs as comments. Select "correction" instead!