Oops, an error
Loading. Please wait.

Forest Whispers My Name Tab

774 views 1 this week
1 commentread comment
1 2 3 4 5
please rate
add to favorites
launch autoscroll
font size
0
reset
how to read this tab
guitar tuner
Autoscroll
slow
fast
+/-
esc
set tempo
stop
Help us to improve Ultimate-Guitar.com Take our survey!
×
Tabed very violently by: Growl Renfield (creepingdeathforever@yahoo.com)
Tabbed With: Notepad

Title: The Forest Whispers My Name
Artist: Cradle Of Filth
Album: Vempire or Dark Ferytales In Phalustine

This is probally one of the best Cradle Of Filth songs because it has
all of the elements Cradle of Filth use. Speed, Melody, power, and harmony.

Tune your guitar down one full step to D

Key
Hammer on: "h"
pull off: "p"
Tremolo Pick: "t"
Bend: ^
Natural Harmonic: *
Artificial Harmonic: +
Palm Mute: P.M._________
Slide: / or \
Pick Slide: p/
Vibrato: ~

Riff A
Play this four times. Play it the same each time, except the artifical
harmonic is played on a different fret each time. The second time,
play it on the fifth fret. The third time play, it on the third fret.
And the forth and last time play it on the second fret BUT right after
you play it, turn your voulme knob down while sliding down.
|-------------------------------------|-------------------------------------|
|-------------------------------------|-------------------------------------|
|-------------------------------------|-------------------------------------|
|----------6-------------------------|----------4----------------+2~--------|
|2---5----4---3-3--3--3-3-3-3-3-|-2---5---2---3-3-3-3-----------------------|
|0---3---------1-1--1--1-1-1-1-1---|-0---3-------1-1-1-1--------------------|
                    p.m._____________             p.m.___

Riff B
|-------------------------------------------|--------------------------------------------|
|-------------------------------------------|--------------------------------------------|
|-------------------------------------------|--------------------------------------------|
|3p2p0-----------------------------------|3p2p0------------------------------------------|
|------3p2p0-----------------------------|------3p2p0------------------------------------|
|-------------3p2p0--0-0-0-0-0-0-0-0-|------------3p2p0----3-3-3-3-1-1-1-1---------------|
                              p.m._______                             p.m._______
Riff C
|----------------------------------------------------------------------------|
|----------------------------------------------------------------------------|
|----------------------------------------------------------------------------|
|-------------------5-5--5-4-4-4-----------------------5-5--5-4-4------------|
|2-2--2-2-2--2---3-3--3-2-2-2----3-3--3-3-3-3----3-3--3-2-2--1---------------|
|0-0--0-0-0--0----------------------1-1--1-1-1--1------------------3---------|

Riff D
|---------------------------|
|---------------------------|
|---------------------------|
|---------------------------|
|/7---/8---/7----/6---------|
|---------------------------|

Riff D, Guitar 1 (Jared)
|----------------------------------------------------|
|----------------------------------------------------|
|----------------------------------------------------|
|--------9---9-8-7-----------------------------------|
|/7--7--------------8---8-10-8-----------------------|
|----------------------------------10---10-8-10------|

Riff D, Guitar 2 (Stuart)
|-----------------------------------------------------------|
|--------12--12-11-10---------------------------------------|
|/9--9------------------10--10-12-10------------------------|
|-----------------------------------------12--12-10-12------|
|-----------------------------------------------------------|
|-----------------------------------------------------------|

Riff E
This is the riff that follows the Damien's synth part.
|------------------------------------|
|------------------------------------|
|------------------------------------|
|------------------------------------|
|2-----2--4--5------4--5--4----------|
|0-----0--2--3------2--3--2----------|

Riff F
This is the same thing as riff E, except it is played at the 9th fret.
And it isn't played in single notes. Eventually, you will have to tremlo
pick this part.
|-------------------------------------------------------------------------------------------|
|-------------------------------------------------------------------------------------------|
|-------------------------------------------------------------------------------------------|
|-------------------------------------------------------------------------------------------|
|11--11-11-11---11-11-11--11-11-11--11-13--14---14-14-14---14-14--13-14-14------------------|
|9----9--9--9----9--9--9----9--9--9---9--11--12---12-12-12---12-12--11-12-11----------------|

Riff G
|-----------------------------------------------------------------------------------------------------|
|-----------------------------------------------------------------------------------------------------|
|-----------------------------------------------------------------------------------------------------|
|2(t)-----5(t)-4(t)-5(t)----------5(t)-4(t)-5(t)--2(t)---5(t)-4(t)-5(t)-/7(t) 5(t)-4(t)---------------|
|-----------------------------3(t)--------------------------------------------------------------------|
|-----------------------------------------------------------------------------------------------------|

That's just the entire song! all you have to do is listen to the song to
figure out when to play what parts! Any questions, comments or cradle
of filth requests? Just email me at creepingdeathforever@yahoo.com
Enjoy!
Suggest correction
Give kudos to tab author, rate the tab!
1 2 3 4 5
comments
print report bad tab
1 comment total.
0 reply
Svart Ulv 100 wrote on November 10 2005, 09:25 am

it sucks!
what the hell is it?

guest
You may want to rate the tab now too:
select rating
Please do not post tabs as comments. Select "correction" instead!