Oops, an error
Loading. Please wait.

Forgive Me Father I Have Sinned Tab

version 1
version 1

Whole song

Interactive

5,024 views 1 this week
no commentswrite comment
1 2 3 4 5
please rate
add to favorites
launch autoscroll
font size
0
reset
how to read this tab
guitar tuner
Autoscroll
slow
fast
+/-
esc
set tempo
stop
Help us to improve Ultimate-Guitar.com Take our survey!
×
Difficulty
Tuning
intermediate
D G C F A D
Tuning : D G C F A D

Main riff

D---10-7777777-12-7777777-14-7777777-10-777777---|
A------------------------------------------------|
F------------------------------------------------| x times
C------------------------------------------------|
G------------------------------------------------|
D------------------------------------------------|

The other riff

D-----------------------------------------------------------------|
A-----------------------------------------------------------------|
F-----------------------------------------------------------------|
C---14----14----14-13----13----13-11----11----11-9----9-----7-9-7-|
G---12-xx-12-xx-12-11-xx-11-xx-11-9--xx-9--xx-9--7-xx-7-7-9-------|
D-----------------------------------------------------------------|

One other riff

D-------------------------------------------------|
A-------------------------------------------------|
F-------------------------------------------------|
C---14-13-12-------14-15--14-13-12----------------|
G------------15-12-----------------15-12-15-14----|
D-------------------------------------------------|
  the same riff
D--------------------------------|
A--------------------------------|
F--------------------------------|
C--------------------------------|
G---7-6-5-----7-8--7-6-5---------|
D---------8-5------------8-5-8-7-|

the bridge with dani in the bedroom (in clip)

D-------------------------------------------------------------|
A--------------------------------------------------15-16------|
F-------------------------------13-14-13-14-16-17--------17---|
C---14-19-14-19-14-13-9-13-9-13-------------------------------|
G-------------------------------------------------------------|
D-------------------------------------------------------------|

D-------------------------------------------------------------|
A-------------------------------------------------------------|
F-------------------------------------------------------------|
C-------------------------------------------------------------|
G-------------------------------------------------------------|
D---9-12-9-12-9-12-11-7-11-7-11-12-9-5-9-5-9-11-8-4-8-4-8-9---|

And main riff again.

Sorry for the solos but it's hard :)
Suggest correction
What's this?
You can suggest a correction to this tab. Community and Mods will review your correction and vote to approve or reject it.
comments
We did not receive enough feedback on this tab! Please rate:
print report bad tab
1 2 3 4 5
guest
You may want to rate the tab now too:
select rating
Please do not post tabs as comments. Select "correction" instead!