Oops, an error
Loading. Please wait.

Forgive Me Father I Have Sinned Tab

version 3
version 3

Whole song

Interactive

7,221 views 1 this week
8 commentsread comments
1 2 3 4 5
x 8
add to favorites
launch autoscroll
font size
0
reset
how to read this tab
guitar tuner
Autoscroll
slow
fast
+/-
esc
set tempo
stop
Help us to improve Ultimate-Guitar.com Take our survey!
×
Author
Difficulty
intermediate
-------------------------------------------------------------------------------
                 FORGIVE ME FATHER (I HAVE SINNED) - Cradle of Filth
-------------------------------------------------------------------------------
Tabbed by: Kiera
Email: evanescenceguitarist@yahoo.com

Tuning: Standard

Intro
Guitar 1 x2
e|-8-0-0-5-0-0-5-0-10-0-0-5-0-0-5-0-12-0-0-5-0-0-5-0-8-0-0-5-0-0-5-0--|
B|--------------------------------------------------------------------|
G|--------------------------------------------------------------------|
D|--------------------------------------------------------------------|
A|--------------------------------------------------------------------|
E|--------------------------------------------------------------------|

Chorus
riff 1 x2
e|-8-0-0-5-0-0-5-0-10-0-0-5-0-0-5-0-12-0-0-5-0-0-5-0-8-0-0-5-0-0-5-0--|
B|--------------------------------------------------------------------|
G|--------------------------------------------------------------------|
D|--------------------------------------------------------------------|
A|--------------------------------------------------------------------|
E|--------------------------------------------------------------------|

riff 2 x2 (You can slide up to the 12's)
e|-8-0-0-5-0-0-5-0-10-0-0-5-0-0-5-0-12-0-0-5-0-0-5-0-12-0-0-5-0-0-5-0-|
B|--------------------------------------------------------------------|
G|--------------------------------------------------------------------|
D|--------------------------------------------------------------------|
A|--------------------------------------------------------------------|
E|--------------------------------------------------------------------|

Guitar 2
Comes in during second repeat of guitar 1's Intro riff --> x4
e|------------------|-----------------------------------------------------|
B|------------------|-----------------------------------------------------|
G|------------------|-----------------------------------------------------|
D|------------------|-----------------------------------------------------|
A|-7--7--7--7--7--7-|-10-10-10--9--9--9--7--7--7--7--7--7-----------------|
E|-5--5--5--5--5--5-|--8--8--8--7--7--7--5--5--5--5--5--5-----------------|

Verse 
riff 1 x4
e|-----------------------------------------------------------------------|
B|-----------------------------------------------------------------------|
G|-------------------------------------------------7---8---7---5-7-------|
D|---------------------------------------------------0---0---0-----------|
A|-5-----5-----5---4-----4-----4---2-----2-----2-------------------------|
E|-3-3-3-3-3-3-3-3-2-2-2-2-2-2-2-2-0-0-0-0-0-0-0-0-----------------------|
PM   ___   ___   _   ___   ___   _   ___   ___   _

riff 2 x2
e|------------------------------------------------------------------------|
B|------------------------------------------------------------------------|
G|--------------------------------------------------5---7---8---9---------|
D|-8-7-5-7-5-------8-7-5-7---------8-7-5-7-5----------5---7---8---9-------|
A|-------------------------8----------------------------------------------|
E|------------------------------------------------------------------------|

Chorus x4
Verse riff 1 x2
Verse riff 2 x1

Bridge
riff 1 x1
e|------------------------------------------------------------------------|
B|---------------------------------------------------11--12--14--11-------|
G|------11----11---------------11-12----11-12--11-12----------------------|
D|-9-------9-----9-7----9-7--9--------------------------------------------|
A|------------------------------------------------------------------------|
E|------------------------------------------------------------------------|

riff 2 x2
e|-------------------------------------------------------------------------|
B|-------------------------------------------------------------------------|
G|-------------------------------------------------------------------------|
D|-------------------------------------------------------------------------|
A|-2----5-2--5-2-5-4----0-4--0-4-5-2------2----2---------------------------|
E|--------------------------------------3----3---3-2----0-2--0-2-0---------|

Bridge riff 1 x1

riff 3 (same as riff 2 only tremolo)

e|------------------------------------------------------------------------|
B|------------------------------------------------------------------------|
G|------------------------------------------------------------------------|
D|------------------------------------------------------------------------|
A|-2222222222222222225555552222222222225555222255554444444444444444000000-|
E|------------------------------------------------------------------------|

e|------------------------------------------------------------------------|
B|------------------------------------------------------------------------|
G|------------------------------------------------------------------------|
D|------------------------------------------------------------------------|
A|444444444444000044445555222222222222222222------222222222222----2222----|
E|------------------------------------------333333------------3333----3333|

e|--------------------------------------------------------|
B|--------------------------------------------------------|
G|--------------------------------------------------------|
D|--------------------------------------------------------|
A|--------------------------------------------------------|
E|-22222222222222222000000222222222222000022220000--------|

Verse riff 1 x2
w/solo

Chorus x8
w/solo

Ending solo guitar
e|--------------------|
B|--------------------|
G|--------------------|
D|--------------------|
A|--14--16--17--------|
E|--------------------|

Thanks for looking at :)

************************************

| /   slide up
| \   slide down
| h   hammer-on
| p   pull-off
| ~   vibrato
| +   harmonic
| x   Mute note
| b   Bend
| pb  Pre-bend
| br  Bend release
| pbr Pre-bend release
| brb Bend release bend

************************************
Suggest correction
comments
print report bad tab
8 comments total. Showing first comments.
0 reply
FIGJAMpAnAnAz 73 Dec 03, 2010 07:25 PM

Go onto YouTube and look up the Forgive Me Father (I Have Sinned) music video. You can see that Paul Allender plays on the 2nd, 3rd and 4th strings for the intro and most of the song.

0 reply
EvanescenceTabs 1,142 Dec 03, 2010 08:19 PM

Yes I have originally looked before posting this even. he actually plays on the high e (standard tuning) and B in the intro if you look at his fingering. He's also sliding in the high string in the intro. so no it's not the 2nd, 3rd, and 4th strings.

0 reply
FIGJAMpAnAnAz 73 Dec 19, 2010 01:53 AM

I found the ACTUAL tab for this song on a Cradle of Filth fan site and yeh... your tab is close but wrong. =/

guest
You may want to rate the tab now too:
select rating
Wanna post a correction for this tab? Suggest correction