Oops, an error
Loading. Please wait.

From Cradle To Enslave Bass Tab

1,045 views 1 this week
no commentswrite comment
1 2 3 4 5
3 more votes to show rating
add to favorites
launch autoscroll
font size
0
reset
guitar tuner
Autoscroll
slow
fast
+/-
esc
set tempo
stop
Help us to improve Ultimate-Guitar.com Take our survey!
×
Difficulty
novice
F|----------------------------------------------------------------|
C|----------------------------------------------------------------|
G|----------------------------------------------------------------|
D|-0-0-0-0-0-0-0-0-0-0-0-0-0-0-0-0-3-3-3-3-3-3-3-3-1-1-1-1-1-1-1-1|


F|----------------------------------------------------------------|
C|----------------------------------------------------------------|
G|----------------------------------------------------------------|
D|-0-0-0-0-0-0-0-0-0-0-0-0-0-0-0-0-1-1-1-1-1-1-1-1-8-8-8-8-7-7-7-7|


F|--------------------------------|
C|o------------------------------o|
G|o------------------------------o|
D|--0--0-3--3-2-1-0-0-4--4-3-2-0--|

F|------------------------------------------------|
C|------------------------------------------------|
G|------------------------------------------------|
D|-0-0-0-0-0-0-3-3-3-3-3-3-0-0-0-0-0-0-6-6-6-6-6-6|

F|--------------------------------|
C|o------------------------------o|
G|o------------------------------o|
D|--0--0-3--3-2-1-0-0-4--4-3-2-0--|

F|----------------------------------------------------------------|
C|----------------------------------------------------------------|
G|----------------------------------------------------------------|
D|-0-0-0-0-0-0-0-0-0-0-0-0-0-0-0-0-1-1-1-1-1-1-1-1-8-8-8-8-7-7-7-7|

F|----------------------------------------------------------------|
C|----------------------------------------------------------------|
G|-5-5-5-5-----------------5-5-5-5---------4-4-4-4-4-4-4-4--------|
D|---------6-6-6-6-6-6-6-6---------6-6-6-6------------------------|


F|----------------------------------------------------------------|
C|----------------------------------------------------------------|
G|-5-5-5-5------------------5-5-5-5-4-4-4-4-7-7-7-7-7-7-7-7-------|
D|----------6-6-6-6-6-6-6-6---------------------------------------|


F|----------------------------------------------------------------|
C|----------------------------------------------------------------|
G|-6-----6------5---6-----6--5--8---------------------------------|
D|----7-----7---------7-------------------------------------------|

F|----------------------------------------------------------------|
C|----------------------------------------------------------------|
G|----------------------------------------------------------------|
D|-0-0-0-0-0-0-0-0-0-0-0-0-0-0-0-0-3-3-3-3-3-3-3-3-1-1-1-1-1-1-1-1|


F|----------------------------------------------------------------|
C|----------------------------------------------------------------|
G|----------------------------------------------------------------|
D|-0-0-0-0-0-0-0-0-0-0-0-0-0-0-0-0-1-1-1-1-1-1-1-1-8-8-8-8-7-7-7-7|

F|-----|
C|-----|
G|-----|
D|--0--| Let it ring
Suggest correction
Give kudos to tab author, rate the tab!
1 2 3 4 5
comments
print report bad tab
guest
You may want to rate the tab now too:
select rating
Wanna post a correction for this tab? Suggest correction