Oops, an error
Loading. Please wait.

From The Cradle To Enslave Bass Tab

version 2
version 2

Whole song

1,920 views 1 this week
2 commentsread comments
1 2 3 4 5
please rate
add to favorites
launch autoscroll
font size
0
reset
guitar tuner
Tab Pro tools
  • play this tab
  • loop segment
  • change instrument
  • show fretboard
  • metronome
Autoscroll
slow
fast
+/-
esc
set tempo
stop
Tuning
D A D G B E
{note!} This is my interpretation of what Dave Pybus is really doing. Also he plays with 
pick, for those of you who care...

Tuning is according to the song!!!
G-|
D-|
A-|
D-|
A-|

Song order is:

*INTRO
*VERSE1
*VERSE2
*BRIDGE
*VERSE3
*VERSE4
*BREAKDOWN
*MELODY1
*MELODY2A
*MELODY2B
*VERSE(S)5 AND SO ON...

0:27
Intro (0:26)
G |---------------------------------|--------------------------------|
D |---------------------------------|--------------------------------|
A |---------------------------------|------------------------11110000|x2
D |0-0-0-0-0-0-0-0------------------|0-0-0-0-0-0-0-0-1-1-1-1---------|
A |----------------1-11-111-4-444444|--------------------------------|

Verse 1 (0:52)
|---------------------------------|--------------------------------|
|---------------------------------|--------------------------------|
|---------------------------------|--------------------------------|x2
|0000000000000000-----------------|00000000000000001111111188887777|
|----------------11111111144444444|--------------------------------|

verse 2 (1:18)
|---------------------------------|--------------------------------|
|---------------------------------|--------------------------------|
|---------------------------------|--------------------------------|x2
|-0-0----0/3------------3---2--1--|-0-0----0/4-----------4---3--2--|
|---------------------------------|--------------------------------|

Bridge (1:31)
|--------------------------------------------------------|
|--------------------------------------------------------|
|3/5-----7/8-------78787878---3/5------8/7---------------|x2
|---0000---00000000---------0----000000|--000000-56565656|
|--------------------------------------------------------|

Verse 3 (1:45)
|---------------------------------|--------------------------------|
|---------------------------------|--------------------------------|
|---------------------------------|--------------------------------|x2
|-0-0----0/3------------3---2--1--|-0-0----0/4-----------4---3--2--|
|---------------------------------|--------------------------------|

verse 4 (1:57)
|---------------------------------|--------------------------------|
|---------------------------------|--------------------------------|
|---------------------------------|--------------------------------|x2
|0000000000000000-----------------|00000000000000001111111188887777|
|----------------11111111144444444|--------------------------------|

(2:24)
|------|
|------|
|3-----|
|------|
|3-----|


PAUSE!!!

(NOTE!) the next part may seem a little off!

Melody 1 (2:38)
|---------------------------------|--------------------------------|
|---------------------------------|--------------------------------|
|3333---------------3-----22------|3333-----------------3--22-55---|x4
|----6-6-66666666------66---------|-----6-6-66666666---------------|
|---------------------------------|--------------------------------|

melody 2a (3:18)
|---------------------------------|--------------------------------|
|---------------------------------|--------------------------------|
|4---00-----------4---00--33------|4---00-----------4---33--66-----|
|---------------------------------|--------------------------------|
|---------------------------------|--------------------------------|

melody 2b (3:30)
|---------------------------------|--------------------------------|
|---------------------------------|--------------------------------|
|4444--00-000000004444000033333333|4444-00-000000004444333366666666|x2
|---------------------------------|--------------------------------|
|---------------------------------|--------------------------------|

verse 5 (3:57)
|---------------------------------|--------------------------------|
|---------------------------------|--------------------------------|
|---------------------------------|--------------------------------|x10
|0-0-0-0-0-0-0-0------------------|0-0-0-0-0-0-0-0-1111111188887777|
|----------------11111111144444444|--------------------------------|


Instruments end at (5:41) & song ends at (6:35)

That is about it. Now remember this is only a guide not the real deal. But this is as 
as i could get it after listening to the song over and over for 5 hours straight.

Just have fun with it!!!


      |||
\,,/,(*_*) ,\,,/
comments
We did not receive enough feedback on this tab! Please rate:
print report bad tab
1 2 3 4 5
2 comments total.
0 reply
"Nick"savage wrote on July 24 2008, 07:13 pm

Dave did not write this song it was their first bassist Robin Eaglestone. He used a 4 string and his fingers.

0 reply
"Nick"savage wrote on July 24 2008, 07:19 pm

Sorry I ment second bassist.

I want to post or [tab]
guest
You may want to rate the tab now too:
select rating
Please do not post tabs as comments. Select "correction" instead!