Oops, an error
Loading. Please wait.

Funeral In Carpathia Tab

version 1
version 1

Whole song

Interactive

5,846 views 3 this week
6 commentsread comments
1 2 3 4 5
excellent!
x 5
add to favorites
launch autoscroll
font size
0
reset
how to read this tab
guitar tuner
Tab Pro tools
  • play this tab
  • loop segment
  • change instrument
  • show fretboard
  • metronome
Autoscroll
slow
fast
+/-
esc
set tempo
stop
 
             C R A D L E  O F  F I L T H - FUNERAL IN CARPATHIA
                     From the Album DUSK AND HER EMBRACE
                       Copyright 1996 MUSIC FOR NATIONS

                           Version 2.0 - APRIL 2002

Transcribed by: death8699
Corrections by: Hellspawn
       Solo by: brunor@sggs.wcape.school.za

For Questions, Comments, Newest Version, or Corrections contact
 death8699: at ArchEnemies@aol.com
 Hellspawn: at effigy29@hotmail.com

Check Out Death8699.com With More Transcriptions at:
 http://www.death8699.com




.  - palm mute                  /  - slide up to
\  - slide down to              ~  - vibrato             
h  - hammer on                  b  - bend 
p  - pull off                   Suffixes for bend    
ph - pinch harmonic             f - full bend    h - half bend
*  - see comment                r - release      t - tap bend
X  - percussion mute            ~ - vibrato bend
@  - slight palm mute           () - ghost note, sustained note

Tune Gtr to D

--FUNERAL IN CARPATHIA--

[Riff A]*
[---------------------------------|----------------------------------]
[---------------------------------|----------------------------------]
[*--------------------------------|---------------------------------*]Gtr I
[*-----2"--4"--2"--5"--4"--2"--4"-|-----2"--4"--2"--5"--4"--2"--4"--*]
[--2"-----------------------------|----------------------------------]
[---------------------------------|-5"-------------------------------]

[---------------------------------|----------------------------------]
[---------------------------------|----------------------------------]
[*-11"-------------12"-----11"----|-9"--------------12"-----11"-----*]Gtr II
[*--------------------------------|---------------------------------*]
[---------------------------------|----------------------------------]
[---------------------------------|----------------------------------]
                                                               
[---------------------------------|----------------------------------]
[---------------------------------|----------------------------------]
[*--------------------------------|---------------------------------*]Gtr I
[*-----2"--4"--2"--5"--4"--2"--4"-|-----2"--4"--2"--5"--4"--2"--4"--*]
[---------------------------------|----------------------------------]
[--3"-----------------------------|-5"-------------------------------]

                                                                 [2tx]
[---------------------------------|----------------------------------]
[---------------------------------|----------------------------------]
[*-----------------12"-----11"----|-9"--------------12"-----11"-----*]Gtr II
[*-12"----------------------------|---------------------------------*]
[---------------------------------|----------------------------------]
[---------------------------------|----------------------------------]
                                                                 
 __________________________________________
[*  = Gtr 2 plays tremelo picked root notes]
[__________________________________________]


[Riff B]
[----------------------------|-----------------------------------]
[----------------------------|-----------------------------------]
[*---------------------------|----------------------------------*]Gtrs
[*-------10"----9"----7"-----|--------10"----9"----7_9-7"-------*]I&II
[--7"------------------------|----------------------h------------]
[----------------------------|-10"-------------------------------]

                                                             [2tx]  
[----------------------------|-----------------------------------]
[----------------------------|-----------------------------------]
[*--------------7"-----------|--------7-------------------------*]Gtrs
[*-------10"---------10_9-7"-|----10"---10-9-10-9-7-9-7---7-----*]I&II
[----------------------p-----|-------------------------10---10-9-]
[--8"------------------------|-10"-------------------------------]


Riff A [2tx]


[Riff C]                                    [2tx]
[-----------------------------------------------]
[-----------------------------------------------]
[*---------------------------------------------*]Gtr
[*-------10"--9"--------------12-----------*---*] I
[--7"-------------10"----9_10----10-9_10-(9tr)--]
[-------------------------h----------h----------]


[Riff C.1]                                 
[-----------------------------------------------]
[-----------------------------------------------]
[*-------10"--9"--------------12-----------*---*]Gtr
[*-7"-------------10"----9_10----10-9_10-(tr9)-*] I
[-------------------------h----------h----------]
[-----------------------------------------------]

                                            [2tx]
[-----------------------------------------------]
[-----------------------------------------------]
[*-------12"--11"-------------14-----------*---*]Gtr
[*-9"-------------12"---11_12----12-11_12(tr11)*] II
[-------------------------h-----------h---------]
[-----------------------------------------------]

 ____________________________
[* = Not sure about the trill]
[but just playing the C      ]
[at 10's sounds close        ]
[____________________________]


Riff C   [2tx] (both guitars)
Riff C.1 [2tx]


[Riff D]*                                      [2tx]
[-----------------------|--------------------------]
[-----------------------|--------------------------]
[*----------------------|-------------------------*]Gtr I
[*-------7"----5"-------|-------5"----------------*]
[--8"----------------8"-|-7"----------8"----7"-----]
[-----------------------|--------------------------]


Gtr 2 & keyboard play harmonies over this riff


[Riff D.1]                                     [2tx]
[-----------------------|--------------------------]
[-----------------------|--------------------------]
[*----------------------|-------------------------*]Gtr I
[*-------3"----2"-------|-------2"----------------*]
[--5"----------------5"-|-3"----------5"----3"-----]
[-----------------------|--------------------------]


Riff D   [2tx]
Riff D.1 [2tx]


[Riff E]
[-----------------------------------------------------------------------]
[-----------------------------------------------------------------------]
[*---------------------------------------------------------------------*]Gtr I
[*---10--9-7-9--10-9--10----10-9--7-9--10-9--10----10-9--7-9--7--9--10-*]
[--7----------------------8---------------------------------------------]
[--^----------------------^---------------------8-----------------------]
                                                ^
[-----------------------------------------------------------------------]
[-----------------------------------------------------------------------]
[*---12-11-9-11-12-11-12----12-11-9-11-12-11-12----12-11-9-11-12-11-12-*]Gtr II
[*-9---------------------10--------------------------------------------*]
[--^----------------------^---------------------10----------------------]
[------------------------------------------------^----------------------]

[--1st-time------------------|2nd-time---------------]
[----------------------------|-----------------------]
[*--7------------9--7--------|-7--------------------*]Gtr I
[*--^--10-9--10-------10--9--|-^--10-9--10--9-7-----*]
[----------------------------|------------------10---]
[----------------------------|-----------------------]

[--3rd-time------------------|4th-time---------------]
[---10----------12-10--------|-10--------------------]
[*---^-12-11-12-------12-11--|--^-12-11-12-11-9-----*]Gtr II
[*---------------------------|------------------12--*]
[----------------------------|-----------------------]
[----------------------------|-----------------------]

 _____________________________________________________________________
[First solo: The rhythm section is denoted by letter chords above the ]
[lead tab. The chords themselves are tabbed at the end of the file for]
[those who need them. Timing is approximate only.                     ]
[_____________________________________________________________________]


  E     E E E     E     E E E       C      C C C      C      C C C
[-9-------9-------9-------9-------|-------------------------------------]
[---10------10------10------10----|-10-------10-------10-------10-------]
[*-----11------11------11------11-|----11-------11-------11-------11---*]
[*--------------------------------|-------12-------12-------12-------12*]
[---------------------------------|-------------------------------------]
[---------------------------------|-------------------------------------]

  E     E E E     E     E E E       C      C C C      C      C C C
[-9-------9-------9-------9-------|-------------------------------------]
[---10------10------10------10----|-10-------10-------10-------10-------]
[*-----11------11------11------11-|----11-------11-------11-------11---*]
[*--------------------------------|-------12-------12-------12-------12*]
[---------------------------------|-------------------------------------]
[---------------------------------|-------------------------------------]

  E     E E E     E     E E E       D   D D D   D   D D D    G GGG G GGG
[-9-------9-------9-------9-------|-7-----7-----7-----7------9---9_10_9-]
[---10------10------10------10----|---9-----9-----9-----9---------h--p--]
[*-----11------11------11------11-|-----9-----9-----9-----9------------*]
[*--------------------------------|------------------------------------*]
[---------------------------------|-------------------------------------]
[---------------------------------|-------------------------------------]

  F#    F
[-7-----9---10---]
[----------------]
[*--------------*]
[*--------------*]
[----------------]
[----------------]

 _____________________________________________________________________________
[Second solo: Once again, the rhythm section is denoted via letter chords with]
[only apporximate timing.                                                     ]
[_____________________________________________________________________________]


  E  EEE  E  EEE   C  CCC  C  CCC   E  EEE  E  EEE   C  CCC  C  CCC
[-9-------9_10_9-|-------7---10---|-9-------9_10_9-|-------7---10---]
[----------h--p--|-10-------------|----------h--p--|-10-------------]
[*---------------|----------------|----------------|---------------*]
[*---------------|----------------|----------------|---------------*]
[----------------|----------------|----------------|----------------]
[----------------|----------------|----------------|----------------]

  E  EEE  E  EEE   D  DDD  D  DDD   G  GGG  G  GGG   F#     F
[-9--------------|-7--------------|-12-------------|-11-----10------]
[----------------|----------------|----------------|----------------]
[*---------------|----------------|----------------|---------------*]
[*---------------|----------------|----------------|---------------*]
[----------------|----------------|----------------|----------------]
[----------------|----------------|----------------|----------------]


[Rhythm over solo]*

E     E E E     E     E E E       C      C C C      C      C C C
E     E E E     E     E E E       C      C C C      C      C C C
E     E E E     E     E E E       D      D D D      D      D D D
G     G G G     G     G G G       F#                F


Repeat [1tx]

 _______________________________________________  
[* = Chords are listed at the bottom of the tab.]
[_______________________________________________]


Riff D   [2tx]
Riff D.1 [2tx]
Riff D   [2tx]
Riff D.1 [2tx]
Fill 2   [E chord]


(Keyboards & Synthesizer)


[Riff F]
[---------------|--------------|--------------|--------------|-------------|
[---------------|--------------|--------------|--------------|-------------|
[*-9------------|-7------------|-5------------|-4------------|-4-5-4-2-4-2-|Gtrs
[*-9------------|-7------------|-5------------|-4------------|-4-5-4-2-4-2-|I&II
[--7------------|-5------------|-3------------|-2------------|-2-3-2-0-2-0-|
[--^------------|-^------------|-^------------|-^------------|-------------|


[Riff G]                    [4tx]
[-------------------------------]    
[-------------------------------]     
[*-----------------------------*]Gtrs     
[*--------7-------------9------*]I&II     
[--7-9-10---10-9-7-9-10---10-9--]    
[-------------------------------]    


Riff F [1tx]


[Riff H]
[--------------------------------|------------------------------------]
[--------------------------------|------------------------------------]
[*-------------------------------|------------------------------------]Gtrs
[*-------------5---------------5-|-------------5---7---5---5---------*]I&II
[--8---7---8-------8---7---8-----|-8---7---8-------------8---8-7-8-7--]
[--------------------------------|------------------------------------]


[Riff H.1] (Riff G played over this)
[--------------------------------|------------------------------------]
[--------------------------------|------------------------------------]
[*-------------------------------|-----------------------------------*]Gtr
[*-----7---5---7-------7---5---7-|-----7---5---7---8-7-5-7-5---5------] I
[--5---------------5-------------|-5-------------8-----------8---8-7--]
[--------------------------------|------------------------------------]


Riff G [3tx]


[Riff G.1]
[------------------------------]
[------------------------------]
[*----------------------7-----*]Gtrs
[*----7-9-10-9-7----7-9---9-7-*]I&II
[--10------------10------------]
[------------------------------]


Rhythm over solo [same as above]


[Riff I] (need to check)
[--------------------------------------------]
[--------------------------------------------]
[*------------------------------------------*]
[*-----------------------------------9\8-11-*]
[--0"---10_0-0"-8_0-0"-10_0-0-8_0-0"-7\6-9---]
[---------p------p-------p--"--p------sl-^---]

                                         [2tx]
[--------------------------------------------]
[--------------------------------------------]
[*------------------------------------------*]
[*-9\8-9\8---9\8-9\8---9\8-9\8---9\8-6------*]
[--7\6-7\6---7\6-7\6---7\6-7\6---7\6-4-------]
[---sl--sl----sl--sl----sl--sl----sl-^-------]


Riff D   [2tx]
Riff D.1 [2tx]
Riff D   [2tx]
Riff D.1 [2tx]
Riff B   [3tx]
End on E chord!


Chord Notation
--------------
[----|---|---|---|---|----]
[----|---|---|---|---|----]
[*-9-|-5-|-7-|---|---|---*]
[*-9-|-5-|-7-|-5-|-4-|-3-*]
[--7-|-3-|-5-|-5-|-4-|-3--]
[----|---|---|-3-|-2-|-1--]
   E   C   D   G   F#  F

Check Out Death8699.com With More Transcriptions at:
 http://www.death8699.com
comments
print report bad tab
6 comments total. Showing first comments.
0 reply
7stringDemon wrote on June 19 2006, 12:16 am

this is a great song.

0 reply
deadace14 wrote on September 5 2007, 09:02 pm

great. ive been tryin 2 find a tab for this. sounds really good , but i didnt see a tuning, so i assumed it was D

0 reply
Mortiroth wrote on April 24 2008, 04:29 pm

Awesome!!! :D

I want to post or [tab]
guest
You may want to rate the tab now too:
select rating
Please do not post tabs as comments. Select "correction" instead!