Oops, an error
Loading. Please wait.

Gabrielle Tab

version 1
version 1

Whole song

Interactive

4,754 views 3 this week
3 commentsread comments
1 2 3 4 5
excellent!
x 4
add to favorites
launch autoscroll
font size
0
reset
how to read this tab
guitar tuner
Autoscroll
slow
fast
+/-
esc
set tempo
stop
Help us to improve Ultimate-Guitar.com Take our survey!
×
Author
Difficulty
Tuning
intermediate
C G C F A D
Tuning: CGCFAD

Song: Gabrielle
Artist: Cradle of Filth
Album: Nymphetamine
Tabbed by: Tyler Marley

/ slide up
\ slide down
. palm mute
x muted note(fret hand)
h hammer on
p pull off

          Main riff: Guitar 1
D|--------|--------------------------|--------------------------|
A|--------|--------------------------|--------------------------|
F|---2--3-|------------4-------------|------------4-------------|
C|---2--3-|-2--4-4-4-4---5--4--2--4--|-2--4-4-4-4---5--4--2--4--|
G|---0--1-|--------------------------|--------------------------|
C|--------|--------------------------|--------------------------|

D|--------------------------|--------------------------|
A|--------------------------|--------------------------|
F|------------7-------------|------------7-------------|
C|-5--7-7-7-7---8--7--5--7--|-5--7-7-7-7---8--7--5--4--|
G|--------------------------|--------------------------|
C|--------------------------|--------------------------|

Main riff: Guitar 2
D|---------------------------|---------------------------|
A|---------------------------|---------------------------|
F|---------------------------|---------------------------|
C|-8--8-8--8-8--8-8-8--8-8-8-|-8--8-8--8-8--8-8-8--8-8-8-|
G|-8--8-8--8-8--8-8-8--8-8-8-|-8--8-8--8-8--8-8-8--8-8-8-|
C|-8--8-8--8-8--8-8-8--8-8-8-|-8--8-8--8-8--8-8-8--8-8-8-|
   .  . .  . .  . . .          .  . .  . .  . . .

D|---------------------------|---------------------------|
A|---------------------------|---------------------------|
F|---------------------------|---------------------------|
C|-8--8-8--8-8--8-8-8--8-8-8-|-8--8-8--8-8--8-8-8--7-7-7-|
G|-8--8-8--8-8--8-8-8--8-8-8-|-8--8-8--8-8--8-8-8--7-7-7-|
C|-8--8-8--8-8--8-8-8--8-8-8-|-8--8-8--8-8--8-8-8--7-7-7-|
   .  . .  . .  . . .          .  . .  . .  

Verse: Guitars 1 and 2
D|---------------------|-------------------|
A|---------------------|-------------------|
F|---------------------|-------------------|
C|-88-8-8-8888-8-88-10-|-88-8-8-88-8-88-10-|
G|-88-8-8-8888-8-88-10-|-88-8-8-88-8-88-10-|
C|-88-8-8-8888-8-88-10-|-88-8-8-88-8-88-10-|
   .. .   ....   ..      .. .   ..   ..

D|----------------------|-------------------|
A|----------------------|-------------------|
F|----------------------|-------------------|
C|-88-8-8-8888-8--88-10-|-8-9-12-13-8-9-5-4-|
G|-88-8-8-8888-8--88-10-|-8-9-12-13-8-9-5-4-|
C|-88-8-8-8888-8--88-10-|-8-9-12-13-8-9-5-4-|
   .. .   ....    ..

Pre-Chorus: Guitar 1(listen carefully, the guitars are hard to hear)
D|---------------|---------------|---------------|----------------|
A|---------------|---------------|---------------|----------------|
F|---------------|---------------|---------------|----------------|
C|-0-------------|-3-------------|-5-------------|-3-2-2-3-3-2-0--|
G|-0-------------|-3-------------|-5-------------|-3-2-2-3-3-2-0--|
C|-0-------------|-3-------------|-5-------------|-3-2-2-3-3-2-0--|
"hilt your dripping fangs that range skywards..."

Pre-Chorus: Guitar 2
D|---------------|---------------|---------------|---------------|
A|---------------|---------------|---------------|---------------|
F|---------------|---000----000--|---------------|---------------|
C|---444----444--|---------------|---444----444--|-3-2-2-3-3-2-0-|
G|---------------|---------------|---------------|-3-2-2-3-3-2-0-|
C|---------------|---------------|---------------|-3-2-2-3-3-2-0-|
"hilt your dripping fangs that range skywards..."

Chorus: Guitars 1 and 2
D|-------------------------|-------------------------|
A|-------------------------|-------------------------|
F|-------------------------|-------------------------|
C|-8-888-8-888-8-888--8-10-|-8-888-8-888-8-888-10-12-|
G|-8-888-8-888-8-888--8-10-|-8-888-8-888-8-888-10-12-|
C|-8-888-8-888-8-888- 8-10-|-8-888-8-888-8-888-10-12-|
     ...   ...   ...           ...   ...   ...

D|------------------------|-------------------|
A|------------------------|-------------------|
F|------------------------|-------------------|
C|-8-888-8-888-8-888-8-10-|-8-9-12-13-8-9-5-4-|
G|-8-888-8-888-8-888-8-10-|-8-9-12-13-8-9-5-4-|
C|-8-888-8-888-8-888-8-10-|-8-9-12-13-8-9-5-4-|
     ...   ...   ...


Main riff


Verse


Pre-Chorus


Chorus


Then...
D|--------------------|
A|--------------------|
F|--------------------|
C|--8--7--3--2--1--0--|
G|--8--7--3--2--1--0--|
C|--8--7--3--2--1--0--|

Solo: Guitar 1
D|------------|--------------|------------|------------|---------------|
A|------------|--------------|------------|------------|---------------|
F|------------|--------------|------------|------------|---------------|
C|-7--------7-|--7-9-6-------|-5--/7----7-|-8-7-5------|--9--10--------|
G|-x--------x-|--x-x---------|------------|------------|---------------|
C|-7--------7-|--7-9---------|------------|------------|---------------|

D|----------------|--------------|---------------|------------|------------|
A|----------------|--------------|---------------|------------|------------|
F|--7--/9----10p9-|-10-12-14-----|--------14--12-|-----12--10-|---12--14---|
C|----------------|--------------|---------------|------------|------------|
G|----------------|--------------|---------------|------------|------------|
C|----------------|--------------|---------------|------------|------------|

D|--------------|------------|-------------|-------------|-------------|
A|--------------|------------|-------------|-------------|----------8--|
F|-------14--10-|------12--9-|--------10p9-|-10p9-5-7-5--|-------------|
C|--------------|------------|-------------|-------------|-------------|
G|--------------|------------|-------------|-------------|-------------|
C|--------------|------------|-------------|-------------|-------------|

D|-------------|------------|-------------|-----------|-----------------|
A|-------------|------------|-------------|-------10--|-----------------|
F|---------10--|-------10p9-|-10p9-5-7-5--|-----------|-------10p9-10p9-|
C|-------------|------------|-------------|-----------|-----------------|
G|-------------|------------|-------------|-----------|-----------------|
C|-------------|------------|-------------|-----------|-----------------|

D|------------------|
A|------------------|
F|-10p9-10p9-7--5\--|
C|------------------|
G|------------------|
C|------------------|



Interlude-no guitars



Main riff



Bridge: Guitars 1 and 2
D|----------|----------|--------------|-----------|
A|----------|----------|--------------|-----------|
F|----------|----------|--------------|-----------|
C|--7--5-7--|-8-7--5-8-|-9-7--5-7-8-7-|-3--8-7--4-|
G|--7--5-7--|-8-7--5-8-|-9-7--5-7-8-7-|-3--8-7--4-|
C|--7--5-7--|-8-7--5-8-|-9-7--5-7-8-7-|-3--8-7--4-|

Outro: Guitar 1
D|-------------|-------------|----------------|--------------------|
A|-------------|---------6---|----------------|--------------------|
F|-6-7---6-7-9-|-6-7---6---9-|-9-10---9-10-12-|-9-10-12-13-12-10-9-|
C|-------------|-------------|----------------|--------------------|
G|-------------|-------------|----------------|--------------------|
C|-------------|-------------|----------------|--------------------|

D|-------------|-------------|----------------|----------------------|
A|-------------|---------6---|----------------|----------------------|
F|-6-7---6-7-9-|-6-7---6---9-|-9-10---9-10-12-|-10p9-10p9------------|
C|-------------|-------------|----------------|-----------10p9-10----|
G|-------------|-------------|----------------|-------------------10-|
C|-------------|-------------|----------------|----------------------|

D|--------------|
A|--------------|
F|--------------|
C|-7--\---------|
G|-7--\---------|
C|-7--\---------|

That's it! Enjoy! 

Please rate.



Suggest correction
comments
print report bad tab
3 comments total.
0 reply
Ratt n' Roll 205 wrote on October 6 2008, 02:29 pm

Nice job man, this is a sick song.

0 reply
Warlock-Revenge 30 wrote on January 4 2009, 09:28 pm

Im pretty shure after the two power chords in the intro its all tremolo, you can here it when picking the highest note in the song. Listen closely

0 reply
mechajesus2000 10 wrote on August 30 2011, 11:20 am

currently reviewing the tab and it sounds correct but out of curiosity, is that main riff on the 1st guitar a trilling pattern?

guest
You may want to rate the tab now too:
select rating
Please do not post tabs as comments. Select "correction" instead!