Oops, an error
Loading. Please wait.

Gabrielle Tab

version 2
version 2

Whole song

Interactive

476 views 1 this week
no commentswrite comment
1 2 3 4 5
poor
x 1
add to favorites
launch autoscroll
font size
0
reset
how to read this tab
guitar tuner
Tab Pro tools
  • play this tab
  • loop segment
  • change instrument
  • show fretboard
  • metronome
Autoscroll
slow
fast
+/-
esc
set tempo
stop
Contributor
-------------------------------------------------------------------------------
                             Gabrielle – Cradle Of Filth
-------------------------------------------------------------------------------
Tabbed by: Tyler Kelly  
Email: ty_5_6@hotmail.com

My first tab, please rate.
Tuning: CGCFAD (Lowest To Highest)

Intro 
D|---------------|
A|---------------|
F|---------------|
C|-10--12--------|
G|-10--12--------|
C|-10--12--------|

Riff 1 – Guitar 1 (All Tremolo)
D|-------------------------------------------------|
A|-------------------------------------------------|
F|-------------------------------------------------|
C|--------7---------------------7------------------|
G|-7-9-10---10-9-7-9-----7-9-10---10-9-7-9---------|
C|-------------------------------------------------|

D|-------------------------------------------------------|
A|-------------------------------------------------------|
F|-------------------------------------------------------|
C|----------12--------------------------12---------------|
G|-10-12-13----13-12-10-12-----10-12-13----13-12-10-9----|
C|-------------------------------------------------------|

Riff 1 – Guitar 2
D|---------------------------------------------------|
A|---------------------------------------------------|
F|---------------------------------------------------|
C|---------------------------------------------------|
G|-8--88--88--888--888-----8--88--88--888--888-------|
C|-8--88--88--888--888-----8--88--88--888--888-------|
   --------------          --------------      

D|---------------------------------------------------|
A|---------------------------------------------------|
F|---------------------------------------------------|
C|---------------------------------------------------|
G|-9--99--99--999--999-----9--99--99--10-9-7-5-------|
C|-9--99--99--999--999-----9--99--99--10-9-7-5-------|
   --------------          ---------    
Riff 2 – Guitar 1 & 2
D|--------------------------------------------------|
A|--------------------------------------------------|
F|--------------------------------------------------|
C|--------------------------------------------------|
G|------8-------8-----10----------8-----8-----10----|
C|-8888-8--8888-8--88-10-----8888-8--88-8--88-10----|
   ----    ----    --        ----    --    --  
D|--------------------------------------------------|
A|--------------------------------------------------|
F|--------------------------------------------------|
C|---------------------------7-9-10-12--7-8-5-4-----|
G|------8-------8-----10-----7-9-10-12--7-8-5-4-----|
C|-8888-8--8888-8--88-10-----7-9-10-12--7-8-5-4-----|
   ----    ----    --  

Riff 3 – Guitar 1 & 2
D|-------------------------------------------|
A|-------------------------------------------|
F|-------------------------------------------|
C|-0-------3-------5-------3-2-2-3-2-2-0-----|
G|-0-------3-------5-------3-2-2-3-2-2-0-----|
C|-0-------3-------5-------3-2-2-3-2-2-0-----|


Riff 4 – Guitar 1 & 2
D|-------------------------------------------------------------|
A|-------------------------------------------------------------|
F|-------------------------------------------------------------|
C|-9------9------9------9-10-----9------9------9------9-12-----|
G|-7-7777-7-7777-7-7777-7-8------7-7777-7-7777-7-7777-7-10-----|
C|-------------------------------------------------------------|
     ----   ----   ----            ----   ----   ----

D|-------------------------------------------------------------|
A|-------------------------------------------------------------|
F|-------------------------------------------------------------|
C|-9------9------9------9-10-----9-10-12-14---9-10-7-6---------|
G|-7-7777-7-7777-7-7777-7-8------7-8--10-12---7-8--5-4---------|
C|-------------------------------------------------------------|
     ----   ----   ----  

Play Riff 1
Play Riff 2
Play Riff 3
Play Riff 4

Riff 5 – Guitar 1 & 2
D|----------------------|
A|----------------------|
F|----------------------|
C|-8--7--3--2--1--0-----|
G|-8--7--3--2--1--0-----|
C|-8--7--3--2--1--0-----|

Solo – Guitar 1 (Some of this was taken by Tyler Marley’s tab, credit goes to him)
D|--------------------------------------------------------------------|
A|--------------------------------------------------------------------|
F|--------------------------------------------------------------------|
C|-7-------7----7-9--6----5h7--7---8-7-5~~~~------------9--10---------|
G|--------------------------------------------------------------------|
C|-7-------7----7-9---------------------------------------------------|

D|--------------------------------------------------------------------|
A|--------------------------------------------------------------------|
F|-7h9---10p9--10-12-14------------14--12-------12--10-----12--14-----|
C|--------------------------------------------------------------------|
G|--------------------------------------------------------------------|
C|--------------------------------------------------------------------|

D|--------------------------------------------------------------------|
A|------------------------------------------------------------8-------|
F|-14--10---------12--9-------10p9---10p9--5-7-5----------------------|
C|--------------------------------------------------------------------|
G|--------------------------------------------------------------------|
C|--------------------------------------------------------------------|

D|-----------------------------------------------------------------------------|
A|-----------------------------------------10----------------------------------|
F|----10--------10p9---10p9---5-7-5---------------10p9h10p9h10p9h10p9--7-----5-|
C|-----------------------------------------------------------------------------|
G|-----------------------------------------------------------------------------|
C|-----------------------------------------------------------------------------|

Riff 6 – Guitar 1 & 2
D|-------------------------------------------------------|
A|-------------------------------------------------------|
F|-------------------------------------------------------|
C|-7--5-7----8-7--5-8----9-7---5-7-8-7----3--8-7--4------|
G|-7--5-7----8-7--5-8----9-7---5-7-8-7----3--8-7--4------|
C|-7--5-7----8-7--5-8----9-7---5-7-8-7----3--8-7--4------|







Outro – Guitar 1 & 2 (Not sure about this, sounds alright though)(All Tremolo)
D|-------------------------------------------|
A|-------------------------------------------|
F|-----------------7----------------7--------|
C|-7-9-10---7-9-10-----7-9-10---7-9---10-----|
G|-------------------------------------------|
C|-------------------------------------------|

D|------------------------------------------------|
A|------------------------------------------------|
F|-7-9-10---7-9-10-12---7-9-10-12-13-12-10-9------|
C|------------------------------------------------|
G|------------------------------------------------|
C|------------------------------------------------|

D|------|
A|------|
F|------|
C|-7/---|
G|-7/---|
C|-7/---|

| --- = Palm Mute
| h = Hammer On
| p = Pull Off
| / = Slide
comments
We did not receive enough feedback on this tab! Please rate:
print report bad tab
1 2 3 4 5
I want to post or [tab]
guest
You may want to rate the tab now too:
select rating
Please do not post tabs as comments. Select "correction" instead!