Oops, an error
Loading. Please wait.

Gilded Cunt Bass Tab

version 1
version 1

Whole song

Interactive

1,542 views 1 this week
5 commentsread comments
1 2 3 4 5
excellent!
x 3
add to favorites
launch autoscroll
font size
0
reset
guitar tuner
Autoscroll
slow
fast
+/-
esc
set tempo
stop
Help us to improve Ultimate-Guitar.com Take our survey!
×
Author
There weren't any accurate bass tabs for my friend so i decided to submit this tab. I play
guitar but this looks accurate for a bass tab.

(A,D,G,C,F) 1 whole step down

IntroChorus
|---------------------------------------|
|---------------------------------------|
|---------------------------------------|x4
|-1-1-2222-1-1-22-44-1-1-2222-1-1-44-22-|
|---------------------------------------|

Verse
|--------------------------------------------------|
|--------------------------------------------------|
|------44--------------------1111-2222-1111-2222---|x4
|-3333----33-44-6666-3-0-3-0---------------------4-|
|--------------------------------------------------|

Chorus
|---------------------------------------|
|---------------------------------------|
|---------------------------------------|x2
|-1-1-2222-1-1-22-44-1-1-2222-1-1-44-22-|
|---------------------------------------|

Verse
|------------------------------------------------|
|------------------------------------------------|
|------44--------------------1111-2222-1111-2--4-|x2
|-3333----33-44-6666-3-0-3-0---------------------|
|------------------------------------------------|

Melody
|-----------------------------------------------|
|-----------------------------------------------|
|-3-563-56--6-5---6-5-3-563-568----865-6-865----|x2
|---------6-----5----------------8--------------|
|-----------------------------------------------|

Interlude
|------------------------------------------------|
|------------------------------------------------|
|-5-2222-1--5-2222-1--5-2222-1-6---5---------5---|
|--------------------------------6---6-76-3------|
|------------------------------------------------|

|------------------------------------|
|------------------------------------|
|-5-2222-1--5-2222-1--5-2222-1-------|
|------------------------------55-44-|
|------------------------------------|

Interlude 2
|-----------------------------------------|
|-----------------------------------------|
|-----------------------------------------|x4
|2222-2-3-2222-2-3-2222-2-3-6-5-3-5-3-2-3-|
|-----------------------------------------|

Chorus x2

Interlude 3
|----------------------|
|----------------------|
|----------------------|x4
|14-3-3-2-2-3-2-2-1----|
|----------------------|

Verse x2

Melody x2

Interlude 1 x1

Interlude 2 x4

Chorus x2

Interlude 3 x6


Thanks Vinnie
Suggest correction
What's this?
You can suggest a correction to this tab. Community and Mods will review your correction and vote to approve or reject it.
comments
We did not receive enough feedback on this tab! Please rate:
print report bad tab
1 2 3 4 5
5 comments total. Showing first comments.
0 reply
BroDD 841 wrote on July 8 2006, 11:47 am

Cradle uses a 5 stringed bass

0 reply
Satan Man 1,448 wrote on October 7 2006, 11:37 am

it is a 5 stringed bass

0 reply
BroDD 841 wrote on October 16 2006, 07:46 am

lol yeah it was.. sorry about that ^^

guest
You may want to rate the tab now too:
select rating
Please do not post tabs as comments. Select "correction" instead!