Oops, an error
Loading. Please wait.

Gilded Cunt Bass Tab

version 2
version 2

Whole song

Interactive

527 views 1 this week
3 commentsread comments
1 2 3 4 5
x 5
add to favorites
launch autoscroll
font size
0
reset
guitar tuner
Autoscroll
slow
fast
+/-
esc
set tempo
stop
Help us to improve Ultimate-Guitar.com Take our survey!
×
Author
Difficulty
Tuning
novice
C G C F A D
Artist: Cradle Of Filth
Song  : Gilded Cunt
Album : Nymphetamine

Intro / Chorus:

1|----------------------------|
2|----------------------------|
3|----------------------------|
4|-33--4-4-4-4--3-3--6-6-5-4--|

Verse:

1|-------------------------------------------------|
2|-------------------------------------------------|
3|---------5---------------------------------------|
4|-5-5-5-5----5--6--8---7-7--7-8-8---8-7-7--7-8-8--|

Whilst guitar does that high bit: (follows guitar two)

1|---------------------|
2|---------------------|
3|-5-7-8-5---8-7---8-7-|
4|---------8-----7-----|

Random riff after that: 2x

1|-------------------|----|---------|
2|-------------------|----|---------|
3|-------------------|-3X-|---------|
4|-9-9-9-9-9-9-9--8--|----|-12--10--|

Yet another riff: 2x

1|---------------|----|--------------------|
2|---------------|----|--------------------|
3|---------------|-3x-|--------------------|
4|-0-0-0-0--4h5--|----| -7-8-7-8--5-4-5-4--|

1|--------------|----|--------------------|
2|--------------|----|--------------------|
3|--------------|-3x-|--------------------|
4|-4-4-4-4-4h5--|----|-7-8-7-8--5-4-5-4---|

Outro: 4x

1|---------------------|
2|---------------------|
3|---------------------|
4|-3-6-5-4-4-5-5-4-4-3-|

Outro part two:

1|-------------------------------------------------------|
2|-------------------------------------------------------|
3|-------------------------------------------------------|
4|-3-3-3-3-4-4-4-4-5-5-5-5-5-5-5-5-4-4-4-4-3-3-3-3--2----|


Suggest correction
comments
print report bad tab
3 comments total.
0 reply
BroDD 368 Jul 08, 2006 11:47 AM

Cradle uses a 5 stringed bass

+1 reply
BassistOath 304 Oct 13, 2006 05:14 PM

It doesnt matter if they use a 5 string, for those of us who have a four string and just friggin wanna play it he made it easy tunin (Drop C not whole step for all) and yeah, i gave him a 4 cuz i havent played it yet but it sounds kool.

0 reply
Love_METAL 165 Oct 17, 2006 01:34 PM

yeah, BassistOath knows where it's at

guest
You may want to rate the tab now too:
select rating
Wanna post a correction for this tab? Suggest correction