Oops, an error
Loading. Please wait.

Gilded Cunt Tab

version 2
version 2

Whole song

Interactive

1,083 views 1 this week
no commentswrite comment
1 2 3 4 5
2 more votes to show rating
add to favorites
launch autoscroll
font size
0
reset
how to read this tab
guitar tuner
Autoscroll
slow
fast
+/-
esc
set tempo
stop
Help us to improve Ultimate-Guitar.com Take our survey!
×
-------------------------------------------------------------------------------
                             SONG NAME - Band Name
-------------------------------------------------------------------------------
Tabbed by:DarkMurderDoll
Email:RagingMetaler515@aol.com
This is my first tab, so bear with me. The tuning is somewhere around drop d or c.
Well, enjoy........ "Gilded Cunt" by Cradle of Filth


Riff 1: (both guitars)
e|------------------------------------------------------------|
B|------------------------------------------------------------|
G|------------------------------------------------------------|
D|-2-2------------2-2--------5--2-2-----------2-2--------3----|
A|-2-2--33333333--2-2--3333--5--2-2--33333333-2-2--3333--3----|
D|-2-2--33333333--2-2--3333--5--2-2--33333333-2-2--3333--3----|
        xxxxxxxx       xxxx          xxxxxxxx      xxxx


Riff 2: (both guitars)
e|------------------------------------------------------------------|
B|------------------------------------------------------------------|
G|------------------------------------------------------------------|
D|----------------------------0-0-0-0--7-7--7-8-8--8-7-7--7-8-8-----|
A|--------3333----------------0-0-0-0--7-7--7-8-8--8-7-7--7-8-8-----|
D|-555555------5555-7777-8888-0-0-0-0--7-7--7-8-8--8-7-7--7-8-8-----|
                              x x x x
     

Riff 3: (guitar one)
e|---------------------------------------------------|
B|---------------7-------7---------------9---9-------|
G|-6--8-9-6--8-9---9-8-9---9-8-9-6-8-6-8---9---9-----|
D|---------------------------------------------------|
A|---------------------------------------------------|
D|---------------------------------------------------|



e|---------------------------------------------------|
B|---------------------------------------------------|
G|-6--8-9-8--8-9--11----11-9-8--9-11-9-8-------------|
D|-------------------7-------------------------------|
A|---------------------------------------------------|
D|---------------------------------------------------|


Riff 3: (guitar 2)
e|--------------------------------------------------------------------|
B|--------------------------------------------------------------------|
G|--------------------------------------------------------------------|
D|--------------------------------------------------------------------|
A|-4--6-7-6--6-7-0--7-6----7-6--4--6-7-4--6-7-9----9-7-6--7-9-7-6-----|
D|----------------------6-----------------------9---------------------|

Riff 4: (both guitars)
e|-------------------------------------------------------|
B|-------------------------------------------------------|
G|-------------------------------------------------------|
D|----------2----------2----------2----------------------|
A|-11111111-0-11111111-0-11111111-0-6-0-5-0-3---0-1------|
D|--------------------------------------------5----------|


e|-------------------------------------------------------|
B|-------------------------------------------------------|
G|-------------------------------------------------------|
D|----------2----------2----------2-6--5-----------------|
A|-11111111-0-11111111-0-11111111-0-6--5-----------------|
D|-------------------------------------------------------|

Riff 5: (both guitars)
e|-------------------------------------------------------------|
B|-------------------------------------------------------------|
G|-------------------------------------------------------------|
D|-3--------3-4-3--------3-4-3--------3-4--8-7-5-7-5-3-5-3-----|
A|-3-333333-3-4-3-333333-3-4-3-333333-3-4--8-7-5-7-5-3-5-3-----|
D|-3-333333-3-4-3-333333-3-4-3-333333-3-4--8-7-5-7-5-3-5-3-----|
     xxxxxx       xxxxxx       xxxxxx

Riff 6: (both guitars) It's a alot like riff 5 but whatever...
e|---------------------------------------------------------------------|
B|---------------------------------------------------------------------|
G|---------------------------------------------------------------------|
D|-3-3-3-3-3-3-4-4-3-3-3-3-3-3-4-4-3-3-3-3-3-3-4-4-8-7-5-7-5-3-5-3-----|
A|-3-3-3-3-3-3-4-4-3-3-3-3-3-3-4-4-3-3-3-3-3-3-4-4-8-7-5-7-5-3-5-3-----|
D|-3-3-3-3-3-3-4-4-3-3-3-3-3-3-4-4-3-3-3-3-3-3-4-4-8-7-5-7-5-3-5-3-----|
                                                   x x x x x x x x

Riff 7: (both guitars) Once again alot like the others.
e|---------------------------------------------------------------------------
B|---------------------------------------------------------------------------
G|---------------------------------------------------------------------------
D|--------------4-------------4-------------4-8-7-5-7-5-3-5-3----------------
A|--333-333-333-4-333-333-333-4-333-333-333-4-8-7-5-7-5-3-5-3---------------
D|--333-333-333-4-333-333-333-4-333-333-333-4-8-7-5-7-5-3-5-3---------------
    xxx xxx xxx   xxx xxx xxx   xxx xxx xxx


Riff 8: (both guitars)
e|---------------------|
B|---------------------|
G|---------------------|
D|-2-5-4-3-444-3-2-----|
A|-2-5-4-3-444-3-2-----|
D|-2-5-4-3-444-3-2-----|

Riff 9: (both guitars)
e|-----------------------------|
B|-----------------------------|
G|-----------------------------|
D|-----------------------------|
A|-222555444433334444333222----|
D|-222555444433334444333222----|
   xxxxxxxxxxxxxxxxxxxxxxxx

Outro: (both guitars)
e|------|
B|------|
G|------|
D|-1----|
A|-1----|
D|-1----|

Song order
Riff 1:4x    
Riff 2:4x
Riff 1:2x
Riff 2:2x
Riff 3:2x(second time, tremolo pick)
Riff 4:1x
Riff 5:1x
Riff 6:1x
Riff 5:1x
Riff 7:1x
Riff 1:2x
Riff 8:4x
Riff 2:2x
Riff 3:2x(second time, tremolo pick)
Riff 4:1x
Riff 5:1x
Riff 6:1x
Riff 5:1x
Riff 7:1x
Riff 1:2x
Riff 8:4x
Riff 9:2x
Outro:1x let it ring

| /  slide up
| \  slide down
| h  hammer-on
| p  pull-off
| ~  vibrato
| +  harmonic
| x  Mute note
===============================================================================
Suggest correction
Give kudos to tab author, rate the tab!
1 2 3 4 5
comments
print report bad tab
guest
You may want to rate the tab now too:
select rating
Wanna post a correction for this tab? Suggest correction