Oops, an error
Loading. Please wait.

Hallowed Be Thy Name Tab

version 2
version 2

Interactive

5,082 views 3 this week
2 commentsread comments
1 2 3 4 5
worth learning
x 1
add to favorites
launch autoscroll
font size
0
reset
how to read this tab
guitar tuner
Tab Pro tools
  • play this tab
  • loop segment
  • change instrument
  • show fretboard
  • metronome
×
Best way to learn
"Hallowed Be Thy Name"
Autoscroll
slow
fast
+/-
esc
set tempo
stop
Contributor
----------------------------------------------------------------------------
                Hallowed Be thy Name - Cradle of Filth
----------------------------------------------------------------------------
Tabbed by: Animike123
Email: Randyisgod15@yahoo.com

Tuning: Standard (E,A,D,G,B,E)  

This is an amazing cover. The other tab for this song was right, but i found a more practical 
way to play it, its played basically in the same form as the IM version.

 
                            Verse 1

e|-5-------------------5-----------------5---------------------------------|
B|---8-6--5-6-5---5------8-6--5-6-5--------8-6--5-6-5---5--6h8p6h8p6h8p6---|
G|--------------7-------------------7-6---------------7--------------------|
D|----------------------------------------------------------------------| x2
A|-------------------------------------------------------------------------|
E|-------------------------------------------------------------------------|
          
          Verse 2
e|-------------------------------|
B|-------------------------------|
G|---------------2---------------|
D|---3p2h3-5-3p2---3p2h3p2-------| x8
A|-5-----------------------5-----|
E|-------------------------------|
              
                             Verse 3
e|-------------------------------------------------|
B|-------------------------------------------------|
G|-------------------------------------------------|
D|-7----7-----------------7------------------------|
A|-5----5-8----8-10----7--5-7-8---5h7p5-7h8p7p5----|
E|--------6----6-8-----5----5-6--------------------|
                       
                             Verse 4
e|-------------------------------------------------------------------------|
B|-------------------------------------------------------------------------|
G|-------------------------------------------------------------------------|
D|-7xx7xx7xx7xx--------------------------7---------------------------------|
A|-5xx5xx5xx5xx8xx8xx8xx8xx10x10x10x10x--5-8-10-5h7p5-7h8p7p5--------------|
E|-------------6xx6xx6xx6xx8xx8xx8xx8xx----6-8-----------------------------|

                             Verse 5
e|-------------------------------------------------------------------------|
B|-------------------------------------------------------------------------|
G|----------2-----------2-----------2--------------------------------------|
D|------2-3---3-2---2-3---3-2---2-3---3-2----------------------------------|
A|-5--------------5-----------5--------------------------------------------|
E|-------------------------------------------------------------------------|

e|-------------------------------------------------------------------------|
B|-------------------------------------------------------------------------|
G|--------5-----------5-----------5----------------------------------------|
D|----5-7---7-5---5-7---7-5---5-7---5b-------------------------------------|
A|-8------------8-----------8----------------------------------------------|
E|-------------------------------------------------------------------------|

e|-------------------------------------------------------------------------|
B|-------------------------------------------------------------------------|
G|-------5/7-----------5-----------5---------------------------------------|
D|---5-7-----7-5---5-7---7-5---5-7---5b------------------------------------|
A|-8-------------8-----------8---------------------------------------------|
E|-------------------------------------------------------------------------|

                           Interlude
e|-----7-------7-------7-------7--------|
B|-------7-8-----7-8-----7-8-----7-8----|
G|---7-------7-------7-------7----------|
D|--------------------------------------|
A|--------------------------------------|
E|--------------------------------------|

Sorry, but i cant figure out the rest. If i figure it out ill post it.

| /  slide up
| \  slide down
| h  hammer-on
| p  pull-off
| ~  vibrato
| +  harmonic
| x  Mute note
============================================================================
comments
We did not receive enough feedback on this tab! Please rate:
print report bad tab
1 2 3 4 5
2 comments total.
0 reply
notimetocrycof wrote on May 29 2005, 12:00 am

this is not right, the beginning,

0 reply
notimetocrycof wrote on May 29 2005, 12:00 am

this is not right, the beginning,

I want to post or [tab]
guest
You may want to rate the tab now too:
select rating
Please do not post tabs as comments. Select "correction" instead!