Oops, an error
Loading. Please wait.

Hallowed Be Thy Name Tab

version 4
version 4

Interactive

1,502 views 1 this week
2 commentsread comments
1 2 3 4 5
please rate
add to favorites
launch autoscroll
font size
0
reset
how to read this tab
guitar tuner
Tab Pro tools
  • play this tab
  • loop segment
  • change instrument
  • show fretboard
  • metronome
×
Best way to learn
"Hallowed Be Thy Name"
Autoscroll
slow
fast
+/-
esc
set tempo
stop
Contributor
This is not the whole song there's some stuff i haven't figured out yet but some may
find this version easier than the other ones on here.

legend
h-hammer on
p-pull off
/-slide up
\-slide down
^#-bend up to # fret
#^ release bend from # fret
~-vibrato

intro
clean
d----------------------------------------]
A-12-10-8-7/8\7-5-7--12-10-8-7/8\7-5-4---]
F----------------------------------------]
C-9--7--5-4/5\4-2-4--9--7--5-4/5\4-2-1---]
G----------------------------------------]
D----------------------------------------]

repeat a lot then the heavier part comes...
GTR 1
d------------------------------------------------]
A^rb12-10-8-7h8p7-5-7~--^rb12-10-8-7h8p7-5-4~----]
F------------------------------------------------]
C------------------------------------------------]
G------------------------------------------------]
D------------------------------------------------]

GTR 2
d-------------------------------------------]
A-------------------------------------------]
F-------------------------------------------]
C-9-XX-9-XX-9-XX-9-XX-5-XX-5-XX-5-XX-5-XX---]
G-7-XX-7-XX-7-XX-7-XX-3-XX-3-XX-3-XX-3-XX---]
D-------------------------------------------]

d----------------------------------------------------]
A-^rb12-10-8-7h8p7-5-7-8h10p8h10p8h10p8h10p8h10^(1)--]
F----------------------------------------------------]
C----------------------------------------------------]
G----------------------------------------------------]
D----------------------------------------------------]

d-----------------------------------------------]
A-----------------------------------------------]
F-----------------------------------------------]
C-7----7----7----7----9----9----5p4----5p4------]
G-5-XX-5-XX-5-XX-5-XX-7-XX-7-XX-----7~-----7~---]
D-----------------------------------------------]

d------------------------------------------------]
A-^rb12-10-8-7h8p7-5-7--^rb12-10-8-7h8p7-5-4-----]
F------------------------------------------------]
C------------------------------------------------]
G------------------------------------------------]
D------------------------------------------------]

d--------------------------------------------]
A--------------------------------------------]
F--------------------------------------------]
G--------------------------------------------]
C--9-XX-9-XX-9-XX-9-XX-5-XX-5-XX-5-XX-5-XX---]
G--7-XX-7-XX-7-XX-7-XX-3-XX-3-XX-3-XX-3-XX---]
D--------------------------------------------]

d---------------------------------------------------]
A-^rb12-10-8-7h8p7-5-7------------------------------]
F---------------------------------------------------]
C----------------------9-XX-9-XX-5p4---5p4----------]
G----------------------7-XX-7-XX-----7~----7~-------]
D---------------------------------------------------]

d---------------------------------------------------]
A---------------------------------------------------]
F---------------------------------------------------]
C--7-xx-7-xx-7-xx-7-xx-9-xx-9-xx-5p4---5p4----------]
G--5-XX-5-XX-5-XX-5-XX-7-XX-7-XX-----7~----7~-------]
D---------------------------------------------------]

Main riff 
d-----------------------------------------------------------]
A-----------------------------------------------------------]
D-----------------------------------------------------------]
F-----------------4--------------------------4--------------]
C-----5p4-5h7-4h5---5p4-5p4------5p4-5h7-4h5---5p4-5p4------]
G---7-----------------------7~-7------------------------7~--]
D--0--------------------------------------------------------]
over and over and over again....

then 
verse riff 1
d-----------------------------------------------------]
A-----------------------------------------------------]
F-----------------------------------------------------]
C-9-------5---------7----------9--4-5--------5p4p2----]X2
G-7-----5-3-------7-5--------9-7--2-3--2h3p2----------]
D-------3---------5----------7------------------------]

Verse riff 2
d--------------------------------------------------------------
A--------------------------------------------------------------
F--------------------------------------------------------------
C-9-XX-9-XX-9-XX-9-XX-5-XX-5-XX-5-XX-5-XX-7-XX-7-XX-7-XX-7-XX--
G-7-XX-7-XX-7-XX-7-XX-3-XX-3-XX-3-XX-3-XX-5-XX-5-XX-5-XX-5-XX--
D--------------------------------------------------------------

d---------------------]
A---------------------]
F---------------------]
C-9-4-5-------5p4p2---]
G-7-2-3-2h3p2---------]
D---------------------]


Main riff again and again and again then

Bridge? riff

d----------------------------------------------]
A----------------------------------------------]
F----------4~-4-----------4-----------4--------]
C------4h5------5p4---4h5---5p4---4h5---5p4~---]
G-7~-7--------------7-----------7--------------]
D----------------------------------------------]

d----------------------------------------------]
A----------------------------------------------]
F----------4~-4-----------4-----------4--------]
C------4h5------5p4---4h5---5p4---4h5---5p4~---]
G-------------------7-----------7--------------]
D-8~-8-----------------------------------------]

Later on a harmonizing part comes in it goes

d--------------------------------------------------------------------]
A--------------------------------------------------------------------]
F-----------11~----------------11----------------11------------------]
C-----11h12-----12p11----11h12----12p11----11h12----11^12^11---------]
G-14~-----------------14----------------14---------------------------]
D--------------------------------------------------------------------]

d--------------------------------------------------------------------]
A--------------------------------------------------------------------]
F-----------12~----------------11----------------11------------------]
C-----11h12-----12p11----11h12----12p11----11h12----11^12^11---------]
G-14~-----------------14----------------14---------------------------]
D--------------------------------------------------------------------]

to be honest i only play this song when i'm goofing around on my guitar so 
i haven't really figured out the rest of the song cuz i stop around here in the song.
but i hope what i've got here helps some of y'all out!

METAL FOREVER!!!

BY: deadgod
comments
We did not receive enough feedback on this tab! Please rate:
print report bad tab
1 2 3 4 5
2 comments total.
0 reply
Nocturnal Frost wrote on February 27 2006, 01:08 pm

c'mon wanker, do it better!
this tab is shit!
tab thwe whole song!

0 reply
Nocturnal Frost wrote on February 27 2006, 01:09 pm

it is not accurate....f**k off man!

I want to post or [tab]
guest
You may want to rate the tab now too:
select rating
Please do not post tabs as comments. Select "correction" instead!