Oops, an error
Loading. Please wait.

Hallowed Be Thy Name Tab

version 6
version 6

Interactive

3,393 views 1 this week
3 commentsread comments
1 2 3 4 5
worth learning
x 10
add to favorites
launch autoscroll
font size
0
reset
how to read this tab
guitar tuner
Autoscroll
slow
fast
+/-
esc
set tempo
stop
Help us to improve Ultimate-Guitar.com Take our survey!
×
Author
Tabbed by:Froboarder
Email:P_Mclean65@hotmail.com
This is my first tab. Hope it's accurate. =)
Comments? Corrections? Bring it. 
I'm not good at timing, so just listen to the song and figure it out.
Tuning is DGCFAD; a full step down.

Acoustic Intro (x 10)
D|----------------------------------------------------------|
A|----------------------------------------------------------|
F|-16--14--12--11-12-11--9--11---16--14--12--11-12-11--9--8-|
C|----------------------------------------------------------|
G|----------------------------------------------------------|
D|----------------------------------------------------------|


Electric Intro
D|-----------------------------------------------------|
A|-----------------------------------------------------|
F|-14b16r14-12-11h12p11-9/11--14b16r14-12-11h12h11-9\8-|
C|-----------------------------------------------------|
G|-----------------------------------------------------|
D|-----------------------------------------------------|

D ------------------------------------------------------------|
A ------------------------------------------------------------|
F -14b16r14-12-11h12p11-9/11-11t12--14b16r14-12-11h12p11-9/11-|
C ------------------------------------------------------------|
G ------------------------------------------------------------|
D ------------------------------------------------------------|

D ------------------------------------------------------------|
A ------------------------------------------------------------|
F -14b16r14-12-11h12p11-9\8--14b16r14-12-11h12p11-9/11--------|
C ------------------------------------------------------------|
G ------------------------------------------------------------|
D ------------------------------------------------------------|

     Fill before Main Riff
D|-----------------------------|
A|-----------------------------|
F|(9)-(9)----------------------|
C|-9-999----5p4----5p4---------|
G|-7-777-77----7------7--------|
D|-----------------------------|
 PM  ..  ..

   Main Riff (x 4)
D|--------------------------------------------------|
A|--------------------------------------------------|
F|-----------------4----------------------4---------|
C|--4h5p4h5h7p5p4h5-5p4h5p4----4h5p4h5h7p5-5p4h5p4--|
G|-7-----------------------7--7--------------------7|
D|--------------------------------------------------|

  Pre-Verse
D|----------------------------------------|
A|----------------------------------------|
F|(9)----(5)----(7)----(9)-(5)------------|
C|-9------5------7------9\4-5------5p4----|
G|-7----5-3----7-5----9-7\2-3-2h3p2---7p5-|
D|------3------5------7-------------------|

  Verse (x 2)
D|----------------------------------------------------------------------|
A|----------------------------------------------------------------------|
F|-9---9---9---9(9)-5---5---5---5---7---7---7---7---7--4-5--------------|
C|-9-999-999-999(9)-5-555-555-555---7-777-777-777---7--4-5-------5p4----|
G|-7-777-777-777(7)-3-333-333-333-335-555-555-555-559--2-3--2h3p2---7p5-|
D|----------------------------------------------------------------------|
PM   ..  ..  ..       ..  ..  ..  ..  ..  ..  ..  ..

--Main Riff x 4

  Secondary Riff 1 (x 3)
D|--------------------------------------|
A|--------------------------------------|
F|--------4-------------4-------4-------|
C|---4-5-7---7-5-4---4-5-5-4-4-5-5-4h5--|
G|-/7-------------7---------7---------7-|
D|--------------------------------------|

 Here, the guitars harmonize. I'll tab out both parts so you can choose which one you wanna play.

   Secondary Riff 2 (Low)(x 2)
D|------------------------------------------------------|
A|------------------------------------------------------|
F|-----4----------4--------4-------4-------4-------4----|
C|--4h5---5p4--4h5--5p4-4h5-5---4h5-5p4-4h5-5p4-4h5-5p4-|
G|-7---------7---------7-------3-------3-------3--------|
D|------------------------------------------------------|

Secondary Riff 2 (High)(x 2)
D|------------------------------------------------------|
A|-----3----------3-------3--------5---------3-------3--|
F|--4-5---5-4--4-5-5-4-4-5-5----4-5---5-4-4-5-5-4-4-5-5-|
C|-5---------5--------5--------5---------5-------5------|
G|------------------------------------------------------|
D|------------------------------------------------------|

 Verse (x 4)
D|---------------------------------------------------------------------|
A|---------------------------------------------------------------------|
F|-9---9---9---9(9)-5---5---5---5(5)-7---7---7---7(7)-9---9------------|
C|-9-999-999-999(9)-5-555-555-555(5)-7-777-777-777(7)-9-999---5p4-5p4--|
G|-7-777-777-777(7)-3-333-333-333(3)-5-555-555-555(5)-7-777-77---7---7-|
D|---------------------------------------------------------------------|
     ..  ..  ..       ..  ..  ..       ..  ..  ..       ..
 Secondary Riff 1 (x 4) (Again, harmonized. But for the lower harmony substitute the D 
the G string for an A# (Sub the 7th fret for the 3rd fret))

  Interlude (Clean) (x 16)
D|-----------|
A|--12-------|
F|9---11-12--|
C|-----------|
G|-----------|
D|-----------|

Fast Part (x 4)
D|---------7--------------|
A|--7-8p7h8-8p7h8p7-------|
F|-9---------------9p7--7-|
C|--------------------10--|
G|------------------------|
D|------------------------|

Bridge before solo (x2)
D|-------------------------------------------------------------------|
A|-------------------------------------------------------------------|
F|-9999--9999--99--9999-99-----------7777--7777--77--7777-77---------|
C|-9999--9999--99--9999-99-5p4-------7777--7777--77--7777-77-5p4-----|
G|-77777777777777777777777----7-7p5--55555555555555555555555----7p5--|
D|---------------------------------7-------------------------------7-|
       ..    ..  ..   ..                 ..    ..  ..   ..
SOLO!!!
I divided it into sections to make it easier to learn
(for the first part, just 2 finger tap the same fret 15)
D|-12t15--------------------------------------------------------|
A|-------15b17-15b17~~p12h15p12-15p12--12~----------------------|
F|-----------------------------------14---12-14p12-14h16-14b16~~|
C|--------------------------------------------------------------|
G|--------------------------------------------------------------|
D|--------------------------------------------------------------|

  --------------------------------------------------|
  ------15b17~15b17~~p12-15p12-15b17-15b17-15b17~~~-|
  -14p12--------------------------------------------|
  --------------------------------------------------|
  --------------------------------------------------|
  --------------------------------------------------|

  -12-15b17-p12-15p12-------------------------------12-------------|
  -------------------15p12-15~--12-15p12-12-15p12-15---------------|
  ----------------------------14--------14------------14b16-14b16~-|
  -----------------------------------------------------------------|
  -----------------------------------------------------------------|
  -----------------------------------------------------------------|

  ------15-----------------------------|
  -15b17--12-15p12---------------------|
  ----------------12h14-16p12-14p12----|
  ---------------------------------14~-|
  -------------------------------------|
  -------------------------------------|

  -20p17p12-19p15p12-20p17p12-19p15p12-20p17p12-19p15p12-20p17p12-19p15p12-|
  -------------------------------------------------------------------------|
  -------------------------------------------------------------------------|
  -------------------------------------------------------------------------|
  -------------------------------------------------------------------------|
  -------------------------------------------------------------------------|

  -20p17p12-19p15p12-20p17p12-19p15p12-15b17~-|
  --------------------------------------------|
  --------------------------------------------|
  --------------------------------------------|
  --------------------------------------------|
  --------------------------------------------|

  -15p12--12----------------------------------------------------------|
  ------15--15p12-15p12--12-------------------------------------------|
  ---------------------14--14p12-14p12--12-------------------------12-|
  ------------------------------------14--14p12-14p12--12--------14---|
  ---------------------------------------------------14--14p12-12-----|

  -----------------12-17p15p14h15p14--14----------------|
  ----------------------------------17--17p15-17p15--15-|
  -14b16r14p12-------------------------------------17---|
  ------------14~---------------------------------------|
  ------------------------------------------------------|
  ------------------------------------------------------|

  --------------------------------------------------|
  --------------------------------------------------|
  -17p16h17p16p14h16p14--14-------------------------|
  ---------------------17--17p16h17p16p14h16p14--14-|
  ---------------------------------------------17---|
  --------------------------------------------------|

  --------------------------------------------------|
  --------------------------------------------------|
  --------------------------------------------------|
  --------------------------------------\\\\\-------|
  -17p16h17p16p14h16p14--14----------------\\\\\----|
  ---------------------17--17-15h17p15-------\\\\\--|

After Solo
D|--------------------------------|
G|--------------------------------|
C|-9999-x9999-x99xx9999xx99999999-|
F|-9999-x9999-x99xx9999xx99999999-|
A|-7777-x7777-x77xx7777xx77777777-|
D|--------------------------------|


 (Here you do the first part once, then the second part twice)(x3)
D|--------------|------------------|
G|--------------|------------------|
C|--------------|-9-x9x99-xx9999-7-|
F|--45----45----|-9-x9x99-xx9999-7-|
A|-7--75-7--75--|-7-x7x77-xx7777-5-|
D|--------------|------------------|

-Main Riff x6

-Followed by this randomness:
  -------------------|
  -------------------|
  -9-4-5-------------|
  -9-4-5------5p4----|
  -7-2-3-2h3p2---7p5-|
  -------------------|

-Main Riff x2
-Followed by the randomness

Then: (same strum pattern as After Solo)
D -------------|
A -------------|
F -9--5--7--9\-|
C -9--5--7--9\-|
G -7--3--5--7\-|
D -------------|

Followed by the interlude(x 32)

Outro
D ------------|
A ------------|
F -9999-9999\-|
C -9999-9999\-|
G -7777-7777\-|
D ------------|
Suggest correction
comments
print report bad tab
3 comments total.
0 reply
chasef 628 wrote on October 20 2008, 06:50 pm

does the t mean tremello picking or tapping???

0 reply
Froboarder 30 wrote on October 20 2008, 11:37 pm

Tapping. I wrote it right above, haha.

-1 reply
Froboarder 30 wrote on October 23 2008, 02:46 pm

Oops, I meant it's kinda like tremolo tapping. Figure it out.

guest
You may want to rate the tab now too:
select rating
Wanna post a correction for this tab? Suggest correction