Oops, an error
Loading. Please wait.

Heaven Torn Asunder Tab

version 1
version 1

Whole song

Interactive

2,384 views 9 this week
2 commentsread comments
1 2 3 4 5
please rate
add to favorites
launch autoscroll
font size
0
reset
how to read this tab
guitar tuner
Autoscroll
slow
fast
+/-
esc
set tempo
stop
Help us to improve Ultimate-Guitar.com Take our survey!
×
     C R A D L E  O F  F I L T H - H E A V E N  T O R N  A S U N D E R
                   From the Album DUSK AND HER EMBRACE
                     Copyright 1996 MUSIC FOR NATIONS

                         Version 1.1 - APRIL 2002

Transcribed by: death8699

For Questions, Comments, Newest Version, or Corrections contact
 death8699: at ArchEnemies@aol.com

Check Out Death8699.com With More Transcriptions at:
 http://www.death8699.com




.  - palm mute                  /  - slide up to
\  - slide down to              ~  - vibrato             
h  - hammer on                  b  - bend 
p  - pull off                   Suffixes for bend    
ph - pinch harmonic             f - full bend    h - half bend
*  - see comment                r - release      t - tap bend
X  - percussion mute            ~ - vibrato bend
@  - slight palm mute           () - ghost note, sustained note

Tune Gtr to D

--HEAVEN TORN ASUNDER--

[Riff A]
[---------------------------------------------------]
[---------------------------------------------------]
[*-------------------------------------------------*]Gtrs
[*-7-----------7-----------7-----------7-----------*]I&II 
[--^-5-4-5-4-5-^-5-4-5-4-5-^-5-4-5-4-5-^-5-4-5-4-5--]
[---------------------------------------------------]
 
                                                [2tx]
[---------------------------------------------------]
[---------------------------------------------------]
[*-------------------------------------------------*]Gtrs
[*-6-----------6-----------6-----------6-----------*]I&II
[--^-5-4-5-4-5-^-5-4-5-4-5-^-5-4-5-4-5-^-5-4-5-4-5--]
[---------------------------------------------------]


[Riff B] --Very Slow throughout--
[------|-----|-----|-----|---------------------------------]
[------|-----|-----|-----|---------------------------------]
[*-7---|-6---|-7---|-6---|-(6\)---------------------------*]Gtrs
[*-7---|-6---|-7---|-6---|-(6\)-------3---------2---------*]I&II
[--5---|-4---|-5---|-4---|-(4\)-------3---------2----------]
[--^---|-^---|-^---|-^---|---sl-1-1-1-1---0-0-0-0---0-0-0--]
                                . . . ^   . . . ^   . . .


[Riff C] --Very Slow throughout--
[------|-------------------|-----------------|--------------------]
[------|-------------------|-----------------|--------------------]
[*-7---|-12---10-12-10-9---|-10---9-10-9-7---|-12---10-12-10-9---*]Gtrs
[*-7---|-12---10-12-10-9---|-10---9-10-9-7---|-12---10-12-10-9---*]I&II
[--5---|-10---8--10-8--7---|-8----7-8--7-5---|-10---8--10-8--7----]
[--^---|--^---^---^-^--^---|-^----^-^--^-^---|--^---^---^-^--^----]
 ____________________________  _____________
[1.                          ||2.           |
[----------------------------|--------------]
[----------------------------|--------------]
[*---------------------------|-------------*]Gtrs
[*-------3---------2---------|-5-----------*]I&II
[--------3---------2---------|-^---8-7-5-4--]
[--1-1-1-1---0-0-0-0---0-0-0-|--------------]
   . . . ^   . . . ^   . . .


Riff A [2tx]


[Riff A.1]
[---------------------------------------------------]
[---------------------------------------------------]
[*-7-----------7-----------7-----------7-----------*]Gtrs
[*-^-5-4-5-4-5-^-5-4-5-4-5-^-5-4-5-4-5-^-5-4-5-4-5-*]I&II
[---------------------------------------------------]
[---------------------------------------------------]

[---------------------------------------------------]
[---------------------------------------------------]
[*-6-----------6-----------6-----------6-----------*]Gtrs
[*-^-5-4-5-4-5-^-5-4-5-4-5-^-5-4-5-4-5-^-5-4-5-4-5-*]I&II
[---------------------------------------------------]
[---------------------------------------------------]
           
                          _______________  __________________
[Riff D]                 |1.             ||2.                |
[------------------------|---------------|-------------------]
[------------------------|---------------|-8-----------------]
[*-9---------9---------9-|---------9---7-|---10-9-10-9-10-9-*]
[*-7---------7---------7-|---------7---5-|------------------*]
[--^-0-0-0-0-^-0-0-0-0-^-|-0-0-0-0-^---^-|-------------------]
[------------------------|---------------|-------------------]
     . . . .   . . . .     . . . .


Riff D [2tx]

                                 ___________________  __________________
[Riff E]                        |1.,3. 5.& 7        ||2.& 4.            |
[-------------------------------|-------------------|-------------------]
[-------------------------------|-------------------|-------------------]Gtrs
[*------------------------------|-------------------|-7----------------*]I&II
[*---------7---------10---------|-9-10-9-7-9-10-9-7-|-^-10-9-10-9-10-9-*]
[--0-0-0-0-^-0-0-0-0--^-0-0-0-0-|-------------------|-------------------]
[-------------------------------|-------------------|-------------------]
   . . . .   . . . .    . . . .
 ____________________
|6.& 8.              |
[--------------------]
[--------------------]
[*-7----------------*]Gtr
[*-^-10-9-10-9-10-9-*] I
[--------------------]
[--------------------]
 ____________________
|6.& 8.              | 
[--------------------]
[--8-----------------]
[*-^-10-9-10-9-10-9-*]Gtr
[*------------------*] II
[--------------------]
[--------------------]


[Bass fill]


[Next] --Tremelo picking throughout--
[-------------------------------------------------------------]
[-------------------------------------------------------------]
[*-----------------------------------------------------------*]Gtrs
[*-----------------------------------------------------------*]I&II
[--4-4-4-4-4-2-2-4-4-4-4-4-4-2-2-4-4-5-5-4-4-2-2"4"5"4"2"4"2"-]
[-------------------------------------------------------------]


[Riff F] --Tremelo picking throughout--
[---------------------------------------------------------------]
[---------------------------------------------------------------]
[*-------------------------------------------------------------*]Gtrs
[*-------------------------------------------------------------*]I&II
[--7-7-7-7-7-7-5-5-7-7-7-7-7-7-5-5-7-7-8-8-7-7-5-5"7"8"7"5"7"5--]
[---------------------------------------------------------------]
 
[---------------------------------------------------------------]
[---------------------------------------------------------------]
[*-------------------------------------------------------------*]Gtrs
[*-------------------------------------------------------------*]I&II
[--4-4-4-4-4-4-2-2-4-4-4-4-4-4-2-2-4-4-5-5-4-4-2-2"4"5"4"2"4"2--]
[---------------------------------------------------------------]


[Riff G] --Tremelo picking throughout--
[-----------------------------------------------------------------------------]
[-----------------------------------------------------------------------------]
[*---------------------------------------------------------------------------*]Gtrs
[*---------------------------------------------------------------------------*]I&II
[--7-7-7-7-7-7-5-5-7-7-7-7-7-7-5-5-7-7-8-8-7-7-5-5"7"8"7"5"7"8-8-8-8-8-8-8-8--]
[-----------------------------------------------------------------------------]
                                                                     
[-----------------------------------------------------------------------------]
[-----------------------------------------------------------------------------]
[*---------------------------------------------------------------------------*]Gtrs
[*-----------------------5"----5-5-5-5-5-5-5-5-5-5-5-5-5-5-5-5-7"5"--5"------*]I&II
[--8-8-8-8-8-8-8-8-5"7"8---8"7"------------------------------------8"--8"7"---]
[-----------------------------------------------------------------------------]


Riff F [2tx]


[Fill 1]
[----------]
[----------]
[*-7\-----*]Gtrs
[*-7\-----*]I&II
[--5\------]
[--^sl-----]


[Next]        
[-------------|----------------]
[-------------|----------------]
[*-9-14-12-11-|-9---7---5-----*]Gtrs
[*-9-14-12-11-|-9---7---5-----*]I&II
[--7-12-10-9--|-7---5---3------]
[--^--^--^-^--|-*---*---^------]

 _____________
[* = Staccatos] 
[_____________]


[Riff H] --Tremelo picking throughout--
[----------------------------------------------------------]
[----------------------------------------------------------]
[*--------------------------------------------------------*]Gtrs
[*--------------------------------------------------------*]I&II
[--7"--10_7-7"-10_7-9"--12_9-9"-12_9-10"--14_10-10"-14_10--]
[--------p-------p--------p-------p---------p---------p----]
 
[----------------------------------------------------------]
[----------------------------------------------------------]
[*--------------------------------------------------------*]Gtrs
[*-10"--9"--7"--------------------------------------------*]I&II
[---------------7"--10_7-7"-10_7-5"--9_5-5"-9_5-3"--7_3-3"-]
[---------------------p-------p-------p------p-------p-----]

                                  [2tx]
[-------------------------------------]
[-------------------------------------]
[*-----------------------------------*]Gtrs
[*-----------------------------------*]I&II
[--7_3-2"--5_2-2"-5_2-3"--7_3-3"-7_3--]
[---p-------p------p-------p------p---]


Riff E [1tx]


[Next]
[----------------------------|------------------------------]
[----------------------------|------------------------------]
[*---------------------------|-----------------------------*]Gtrs
[*-9-9--9-10--10-10--10-8--8-|-11-11--11-12-10-10--10-9--9-*]I&II
[--7-7--7-8---8--8---8--^--^-|-9--9---9--10-8--8---8--^--^--]
[---------^------------------|------------^-----------------]


Riff F [2tx]
Riff G [1tx]
Riff F [2tx]


[Fill 2]
[------]
[------]
[*-7--*]Gtrs
[*-7--*]I&II
[--5---]
[--*---]

 ____________
[* = Staccato] 
[____________]


[Synthesizer]


Riff B [1tx]

          ____________________ __________________________________________
[Riff I] |1-2.                |3.                                        |
[-----------------------------|------------------------------------------]
[-----------------------------|------------------------------------------]
[*-10------10-12-14-12-10-9---|-9-7---5-4-2-----------------------------*]Gtrs
[*-10------10-12-14-12-10-9---|-9-7---5-4-2---------3---------2---------*]I&II
[--8-------8--10-12-10-8--7---|-7-5---3-2-0---------3---------2----------]
[--^-------^---^--^--^-^--^---|-^-^---^-^-^---1-1-1-1---0-0-0-0---0-0-0--]
                                              . . . ^   . . . ^   . . .


Riff C   [1tx]
Riff A   [2tx]
Riff A.1 [2tx]
Riff G   [3tx]
Fill 1
End!

Check Out Death8699.com With More Transcriptions at:
 http://www.death8699.com
Suggest correction
What's this?
You can suggest a correction to this tab. Community and Mods will review your correction and vote to approve or reject it.
comments
We did not receive enough feedback on this tab! Please rate:
print report bad tab
1 2 3 4 5
2 comments total.
0 reply
chasef 696 wrote on December 11 2008, 09:25 am

great tab

0 reply
macNdonsuprclb 28 wrote on August 31 2009, 01:35 am

yes this is great

guest
You may want to rate the tab now too:
select rating
Please do not post tabs as comments. Select "correction" instead!