Oops, an error
Loading. Please wait.

Hell Awaits Tab

1,112 views 1 this week
no commentswrite comment
1 2 3 4 5
excellent!
x 1
add to favorites
launch autoscroll
font size
0
reset
how to read this tab
guitar tuner
Tab Pro tools
  • play this tab
  • loop segment
  • change instrument
  • show fretboard
  • metronome
Autoscroll
slow
fast
+/-
esc
set tempo
stop
Band.. Cradle of filth
song..Hell awaits

this is not my work........All I did was put up
Special thanks to Overt Enemy

palm mute
x pick slide
/ slide
\ slide
_ hammer-on or pull-off

Intro
guitar 3 plays a lot of pick slides

   Guitar 1
Eb-----------------------|
Bb-----------------------|
Gb-----------------------|
Db-----------------------|
Ab-----------------------|
Eb-0-0-0-0-0-0-0-0-0-0-0-|
   . . . . . . . . . . .


   Guitar 2
Eb----------------------------------------------------------|
Eb----------------------------------------------------------|
Gb--------------------------------9-10----------------3--2--|
Db-2--------8----2-3--------8-\---9-10-----2-3--------3--2--|
Ab-2--------8----2-3--------8-\---7--8--x--2-3--------1--0--|
Eb-0----0-0-6----0-1----0-0-6-\---------x--0-1----0-0-------|
        . .             . .                       . .

    Guitar 1 & 2
Eb-------------------------------------------------------------------------------|
Bb-------------------------------------------------------------------------------|
Gb-------------------------------------------------------------------------------|
Db--------------------------------------10\9-10----------------------------------|
Ab-2-------------------------------------8\7--8----------------------------8\7-8-|
Eb-0-0-0-0-0-0-0-0-0-0-0-0-0-0-0-0-0-0-0-------0-0-0-0-0-0-0-0-0-0-0-0-0-0-6\5-6-|
     . . . . . . . . . . . . . . . . . .       . . . . . . . . . . . . . .

Eb--------------------------------------------------------------------------|
Bb--------------------------------------------------------------------------|
Gb--------------------------------------------------------------------------|
Db---------------------10---7-----------------------------------------------|
Ab----------------------8---5---7/8---6---------------------------8\7/8-7-5-|
Eb-0-0-0-0-0-0-0-0-0-0----------5/6---4--0-0-0-0-0-0-0-0-0-0-0-0--6\5/6-5-3-|
   . . . . . . . . . .                   . . . . . . . . . . . .

Eb--------------------------------------------------------------------------|
Bb--------------------------------------------------------------------------|
G---------------------------------------------------------------------------|
Db------------------------------------10\9-10-------------------10-7--------|
Ab-------------------------------------8\7--8-------------8\7-8--8-5-7/8-6--|
Eb-0-0-0-0-0-0-0-0-0-0-0-0-0-0-0-0-0-0--------0-0-0-0-0-0-6\5-6------5/6-4--|
   . . . . . . . . . . . . . . . . . .        . . . . . .


Eb------------------------------------------------|
Bb------------------------------------------------|
Gb------------------------------------------------|
Db-------------------------10\9/-8-9-7------------|
Ab--------------------------8\7/-8-7-5-8\7/8-5-5--|
Eb-0-0-0-0-0-0-0-0-0-0-0-0-------------6\5/6-5-3--|
   . . . . . . . . . . . .

    2 times
Eb-----------------------------------------------------------|
Bb-----------------------------------------------------------|
Gb-----------------------------------------------------------|
Db----------------------------------------------------3---3--|
Ab-2--------------------------------------------------1---1--|
Eb-0-0-0-0---0-0-0---0-0-0---0-0-0---0-0-0---0-0-0-0---------|
     . . .   . . .   . . .   . . .   . . .   . . . .


   5 times
Eb----------------------------------------     ------------------|
Bb----------------------------------------     ------------------|
Gb----------------------------------------     -3-4--------------|
Db-2---------3---------4---------4-3-2-3--     -3-4-4-5-4-3-2-1--|
Ab-2---------3---------4---------4-3-2-3--     -----4-5-4-3-2-1--|
Eb---0-0-0-0---0-0-0-0---0-0-0-0----------     ------------------|
     . . . .   . . . .   . . . .

   2 times
Eb-----------------------------------------------------------------------------|
Bb-----------------------------------------------------------------------------|
Gb-----------------------------------------------------------------------------|
Db-9-9-9-10-9-10-9-9-9-10-9-10-9-9-10-9-10-9-10-10-9-12-9-12-12-12-12-1012-10--|
Ab-7-7-7--8-7--9-7-7-7--8-7--8-7-7--8-7--8-7--8--8-7-10-7-10-10-10-10--8-10--8-|
Eb-----------------------------------------------------------------------------|


Eb----------------------|
Bb----------------------|
Gb----------------------|
Db-9--5-4-3-7-----------|
Ab-7--3-2-5-5--6-5-4-3--|
Eb-------------4-3-2-1--|

End Intro


Eb--------------------------------------------------------------------------|
Bb--------------------------------------------------------------------------|
Gb--------------------------------------------------------------------------|
Db-10\9--------------------------------10\9-10---------------------10\9-----|
Ab--8\7---------------------------------8\7--8----------------------8\7-----|
Eb------0-0-0-0-0-0-0-0-0-0-0-0-0-0-0-0--------0-0-0-0-0-0-0-0-0-0----------|
        . . . . . . . . . . . . . . . .        . . . . . . . . . .

Eb--------------------------|
Bb--------------------------|
Gb--------------------------|
Db-----------------10\9-12--|
Ab------------------8\7-10--|
Eb-0-0-0-0-0-0-0-0----------|
   . . . . . . . .


  EXITING ON DAMNATIONS EDGE .....
Eb------------------------------------------|
Bb------------------------------------------|
Gb------------------------------------------|
Db-----------------5/7-----------------7\5--|
Ab-----------------3/5-----------------5\3--|
Eb-3-3-3-3-3-3-3-3-----3-3-3-3-3-3-3-3------|
   . . . . . . . .     . . . . . . . .

   THE GATES OF HELL .....                          CRUCIFY THE .....
Eb------------------------------------------      -------------------------|
Bb------------------------------------------      -------------------------|
Gb------------------------------------------      -------------------------|
Db------------------------------------------      -------------------------|
Ab-2-2-2-2-2-2-2-2-2-2-2-2-5-5-3-3-0-0-3-3--      -------------------------|
Eb------------------------------------------      -0-0-0-0-0-0-0-0-0-0-0-0-|
   . . . . . . . . . . . . . . . . . . . .         . . . . . . . . . . . .

                          PRAY TO THE MOON .....
Eb------------------     ------------------------|
Bb------------------     ------------------------|
Gb------------------     ------------------------|
Db------------------     ------------------------|
Ab-8_7-7_8-8_10-8_7-     -8_7-7_8-8_9-9_10-------|
Eb------------------     ------------------------|


Eb-------------------------     ---------------------------------|
Bb-------------------------     ---------------------------------|
Gb-7-9-8-9-----------------     ---------------------------------|
Db-7-9-8-9-----------------     ---------------------------------|
Ab-5-7-6-7-----------------     -------------------------3-2-3-5-|
Eb---------0-0-0-0-0-0-0-0-     -2-2-2-2-2-2-2-2-2-2-2-2---------|
           . . . . . . . .       . . . . . . . . . . . .

after (HELL AWAITS) 2 time

Eb--------------     ------------------     ---------------------------------|
Bb--------------     ------------------     ---------------------------------|
Gb--------------     ------------------     ---------------------------------|
Db--------------     ------------------     ---------------------------------|
Ab-6_7-7_8-8_10-     -6_7-7_8-8_9-9_10-   -------------------------3-2-35----|
Eb--------------     ------------------     -2-2-2-2-2-2-2-2-2-2-2-2---------|
                                             . . . . . . . . . . . .

Eb---------------------------|
Bb---------------------------|
Gb---------------------------|
Db-7\5-7\5-7\5-7\5-----------|
Ab-5\3-5\3-5\3-5\3---5-----4-|
Eb-------------------3-----2-|
comments
We did not receive enough feedback on this tab! Please rate:
print report bad tab
1 2 3 4 5
I want to post or [tab]
guest
You may want to rate the tab now too:
select rating
Please do not post tabs as comments. Select "correction" instead!