Oops, an error
Loading. Please wait.

Her Ghost In The Fog Tab

version 1
43,359 views 36 this week
8 commentsread comments
1 2 3 4 5
x 27
add to favorites
launch autoscroll
font size
0
reset
how to read this tab
guitar tuner
backing track
0:00
0:00
×
Best way to learn
"Her Ghost In The Fog"
Autoscroll
slow
fast
+/-
esc
set tempo
stop
Author
Tuning
D G C F A D
Artist: Cradle Of Filth
Song: Her Ghost In The Fog
Tabbed by: lord_of_the_bin
Tuning: (Low To High : D G C F A D) 

Heres the tabs for one of the best Cradle songs.
I hope you will enjoy the tabs . I try to figure out          
the best that i can . Theres 2 guitars in the song . 

[riff A]         
       D5              G#5             G5              F#5    
D|----------------------------------------------------------------------|
A|----------------------------------------------------------------------|
F|----------------------------------------------------------------------|          
C|-x//-2222222222222222666666666666666655555555555555554444444444444444-|
G|-x//-2222222222222222666666666666666655555555555555554444444444444444-|
D|-----0000000000000000444444444444444433333333333333332222222222222222-|
          
  at end of F#5....
D|-----|
A|-----|
F|-8---|                   
C|-8---|
G|-6---|
D|-----|
                    
  D5          G#5                       G5                    F#5
(Gtr.2)
D|---------------------------------------------------------|
A|---------------------------------------------------------|
F|---------8877----8877------------------------------------|
C|-------66----8899----99----4-6-5~-4~~4~~4~~4~~4~~4~~4(5)-|
G|---------------------------------------------------------|
D|---------------------------------------------------------|
                                                                                              
[riff B]                    
(Gtr.1&2)                                          (x2)
D|-------------------------------------------------| |------|
A|-------------------------------------------------| |------|
F|-9-9999-9-7-7777-7------------------------------o| |------|
C|-9-9999-9-7-7777-7--5-7-5-4---5-4-5---5---5---5-o| |-5~~\-|
G|-7-7777-7-5-5555-5----------7-------7---5--------| |------|
D|--------------------------------------------7----| |------|
|   pm..     ....

(Gtr.2 plays this the 2nd time)
D|-------------------------------------------------| |------|
A|-------------------------------------------------| |------|
F|------------------------------4---4---4---4---4--| |-4~~\-|
C|--------------------------------7---5---4--------| |------|
G|--------------------------------------------2----| |------|
D|-------------------------------------------------| |------|
          
(Keyboard arranged for Gtr.) 
(Fingerpicked)
          
(Gtr.)1       (x6)
D|---12---10--|---9---9---10---10--|
A|------------|--------------------|
F|-9----9----o|-9---9---9----9-----|
C|-----------o|--------------------|
G|------------|--------------------|
D|------------|--------------------|
          
(Gtr.2)       (x4)                   (x3)
D|---12---10--|---9---9---10---10--|
A|------------|--------------------|
F|-9----9----o|-9---9---9----9----o|
C|-----------o|-------------------o|
G|------------|--------------------|
D|------------|--------------------|
          
[riff C]       
                                               (x3)
D|---------------------------------------------|
A|---------------------------------------------|
F|-9999999999999999---------------------------o|
C|-9999999999999999---------------------------o|
G|-7777777777777777----------------------------|
D|-0000000000000000-6~~-8-6-5-6-5-3-2-2~~2~~3--|
| pm..............

(Gtr.2 the last 2 times)
D|---------------------------------------------|
A|---------------------------------------------|
F|------------------3~~-5-3-2-3-2--------------|
C|--------------------------------5-4-4~~4~~5--|
G|---------------------------------------------|
D|---------------------------------------------|

[riff B]                    
(Gtr.1&2)                                          (x2)
D|-------------------------------------------------| |------|
A|-------------------------------------------------| |------|
F|-9-9999-9-7-7777-7------------------------------o| |------|
C|-9-9999-9-7-7777-7--5-7-5-4---5-4-5---5---5---5-o| |-5~~\-|
G|-7-7777-7-5-5555-5----------7-------7---5--------| |------|
D|--------------------------------------------7----| |------|
|   pm..     ....

(Gtr.2 plays this the 2nd time)
D|-------------------------------------------------| |------|
A|-------------------------------------------------| |------|
F|------------------------------4---4---4---4---4--| |-4~~\-|
C|--------------------------------7---5---4--------| |------|
G|--------------------------------------------2----| |------|
D|-------------------------------------------------| |------|
                   
[riff D]       
(Gtr.1)                                                             (x4)
D|------------------------------------------------------------------|
A|------------------------------------------------------------------|
F|-----------------------------------------------------------------o|
C|-2-4-5-4-2-4-5-4---4-5-4---4-5-4---4-5-4---4-5-4---4-5-4-7-5-4-5-o|
G|-----------------2-------2-------3-------3-------5----------------|
D|------------------------------------------------------------------|

(Gtr.2)                                                             (x4)
D|------------------------------------------------------------------|
A|------------------------------------------------------------------|
F|-2-4-5-4-2-4-5-4---4-5-4---4-5-4---4-5-4---4-5-4---4-5-4-7-5-4-5-o|
C|-----------------2-------2-------3-------3-------5---------------o|
G|------------------------------------------------------------------|
D|------------------------------------------------------------------|
          
Bb5 A5  G5 A5 Bb5 A5  C5 C#5
Bb5 A5  G5 A5 Bb5 A5  F5 (13,15,15xxx)
Bb5 A5  G5 A5 Bb5 A5  C5 C#5
Bb5 A5  G5 A5 Bb5 A5  C#5

[riff A]         
       D5              G#5             G5              F#5    
D|----------------------------------------------------------------------|
A|----------------------------------------------------------------------|
F|----------------------------------------------------------------------|          
C|-x//-2222222222222222666666666666666655555555555555554444444444444444-|
G|-x//-2222222222222222666666666666666655555555555555554444444444444444-|
D|-----0000000000000000444444444444444433333333333333332222222222222222-|
                    
D|-----|
A|-----|
F|-4\--|
C|-5\--|
G|-----|
D|-----|
          
Drum for 2 bars.
          
(Bass arranged for Gtr) 
(Fingerpicked)                   
D|---------------------------------------------------------------------------|
A|---------------------------------------------------------------------------|
F|---------------------------------------------------------------------------|
C|-----2---1--------------2-/5----------1---------2------------------1-------|
G|-------2--------------2-------------2---2-----2--------------2-3-2---------|
D|-0-0--------------0-0---------------------3-0------------0-0---------------|
                   
D|------------------------------------|
A|------------------------------------|
F|------------------------------------|
C|-------2-/7----5^7^5-4\-----1-------|
G|-----2--------------------2---2-----|
D|-0-0--------------------3-------3-0-|
          
[riff C]       
                                               (x3)
D|---------------------------------------------|
A|---------------------------------------------|
F|-9999999999999999---------------------------o|
C|-9999999999999999---------------------------o|
G|-7777777777777777----------------------------|
D|-0000000000000000-6~~-8-6-5-6-5-3-2-2~~2~~3--|
| pm..............

(Gtr.2 the last 2 times)
D|---------------------------------------------|
A|---------------------------------------------|
F|------------------3~~-5-3-2-3-2--------------|
C|--------------------------------5-4-4~~4~~5--|
G|---------------------------------------------|
D|---------------------------------------------|
                    
(Gtr.1&2)
D|-------------------------------------------------| |------|
A|-------------------------------------------------| |------|
F|-7-7777-7-5-5555-5------------------------------o| |------|
C|-7-7777-7-5-5555-5--3-5-3-2---3-2-3---3---3---3-o| |-3~~\-|
G|-5-5555-5-3-3333-3----------5-------5---3--------| |------|
D|--------------------------------------------5----| |------|
|   pm..     ....

(Gtr.2 plays this the 2nd time)
D|-------------------------------------------------| |------|
A|-------------------------------------------------| |------|
F|------------------------------2---2---2---2---2--| |-2~~\-|
C|--------------------------------5---3---2--------| |------|
G|--------------------------------------------0----| |------|
D|-------------------------------------------------| |------|
          
(Gtrs.1&2)
D|------------------------------------------------|    
A|------------------------------------------------|    
F|-9-9999-9-7-7777-7------------------------------|    
C|-9-9999-9-7-7777-7--5-7-5-4---5-4-5---5---5---5-|    
G|-7-7777-7-5-5555-5----------7-------7---5-------|    
D|--------------------------------------------7---|    
   pm..     ....
      
[riff D]       
(Gtr.1)                                                             (x4)
D|------------------------------------------------------------------|
A|------------------------------------------------------------------|
F|-----------------------------------------------------------------o|
C|-2-4-5-4-2-4-5-4---4-5-4---4-5-4---4-5-4---4-5-4---4-5-4-7-5-4-5-o|
G|-----------------2-------2-------3-------3-------5----------------|
D|------------------------------------------------------------------|

(Gtr.2)                                                             (x4)
D|------------------------------------------------------------------|
A|------------------------------------------------------------------|
F|-2-4-5-4-2-4-5-4---4-5-4---4-5-4---4-5-4---4-5-4---4-5-4-7-5-4-5-o|
C|-----------------2-------2-------3-------3-------5---------------o|
G|------------------------------------------------------------------|
D|------------------------------------------------------------------|
          
Bb5 A5  G5 A5 Bb5 A5  C5 C#5
Bb5 A5  G5 A5 Bb5 A5  F5 (13,15,15xxx)
Bb5 A5  G5 A5 Bb5 A5  C5 C#5
Bb5 A5  G5 A5 Bb5 A5  C#5

[Final riff for 2 gtrs.]       
(Gtr.1)        
D|------------------------------|
A|------------------------------|
F|------------------------------|
C|-/7-\-/5\-4-5-5~~\------------|
G|-------------------/9-\-/6-\--|
D|------------------------------|

(Gtr.2)                         
D|------------------------------|
A|------------------------------|
F|-/5-\-/4\-2-4-4~~\------------|
C|------------------------/9~~\-|
G|-------------------/6-\-------|
D|------------------------------|
                   
[Final riff for 1 gtr]          
D|--------------------------------|
A|--------------------------------|
F|-5----4--2-4-4-\----------------|
C|-7----5--4-5-5-\-/-4~~\--/9~~\--|
G|-----------------/-6~~\--/6~~\--|
D|--------------------------------|


************************************

| (n)  Ghost note
| ~    Vibrato
| \    Slide down
| /    Slide up

************************************
Suggest correction
comments
print report bad tab
8 comments total. Showing first comments.
0 reply
VampireTwiggY 15 Oct 03, 2002 08:00 PM

the inrto riff actaully sounds liek it migth be rate not many people tab cradle of filth music i wonder y???

0 reply
stefoyboy 110 Nov 08, 2002 07:00 PM

well u fukkin did and it was even worse than this. not saying this is bad or anythin, i gave it 4....... cof rule 4eva!!

0 reply
MetalheadBuddha 10 Jun 29, 2003 08:00 PM

good tab. u know what sucks though? no one has a tab for Cradle Of Filth - Amor E Morte. that song is freakin kick @$$
. i want to play it but i dont have money for any C.O.F. tab books! o well. good job though!

guest
You may want to rate the tab now too:
select rating
Wanna post a correction for this tab? Suggest correction