Oops, an error
Loading. Please wait.

Her Ghost In The Fog Tab

version 6
2,444 views 3 this week
2 commentsread comments
1 2 3 4 5
1 last vote to show rating
add to favorites
launch autoscroll
font size
0
reset
how to read this tab
guitar tuner
Autoscroll
slow
fast
+/-
esc
set tempo
stop
Help us to improve Ultimate-Guitar.com Take our survey!
×
#----------------------------------PLEASE NOTE---------------------------------#
#This file is the author's own work and represents their interpretation of the #
#song. You may only use this file for private study, scholarship, or research. #
#------------------------------------------------------------------------------##

                              HER GHOST IN THE FOG
                         As recorded by Cradle of Filth
                          (From the 2000 Album MIDIAN)

Transcribed by GuitarHero_JP

Gtr I (D G C F A D) - 'Guitar I'
Gtr II (D G C F A D) - 'Guitar II'

I din't put the keyboard in because I thought it was abit pointless. I mean, this 
is a GUITAR tab anyway. But yeh enjoy!

   Piano Intro
    Q=127
   4/4
    Gtrs I, II
    W          W          W          W     4x
||-----------|----------|----------|-------||
||o----------|----------|----------|------o||
||-----------|----------|----------|-------||
||-----------|----------|----------|-------||
||o----------|----------|----------|------o||
||-----------|----------|----------|-------||


 Intro
  |-3-| |-3-| |-3-| |-3-|   |-3-| |-3-| |-3-| |-3-|
  E E E E E E E E E E E E   E E E E E E E E E E E E
|-------------------------|-------------------------|
|-------------------------|-------------------------|
|-------------------------|-------------------------|
|-------------------------|-------------------------|
|-2-2-2-2-2-2-2-2-2-2-2-2-|-2-2-2-2-2-2-2-2-2-2-2-2-|
|-0-0-0-0-0-0-0-0-0-0-0-0-|-0-0-0-0-0-0-0-0-0-0-0-0-|


  |-3-| |-3-| |-3-| |-3-|   |-3-| |-3-| |-3-| |-3-|
  E E E E E E E E E E E E   E E E E E E E E E E E E
|-------------------------|-------------------------|
|-------------------------|-------------------------|
|-------------------------|-------------------------|
|-------------------------|-------------------------|
|-6-6-6-6-6-6-6-6-6-6-6-6-|-6-6-6-6-6-6-6-6-6-6-6-6-|
|-4-4-4-4-4-4-4-4-4-4-4-4-|-4-4-4-4-4-4-4-4-4-4-4-4-|


  |-3-| |-3-| |-3-| |-3-|   |-3-| |-3-| |-3-| |-3-|
  E E E E E E E E E E E E   E E E E E E E E E E E E
|-------------------------|-------------------------|
|-------------------------|-------------------------|
|-------------------------|-------------------------|
|-------------------------|-------------------------|
|-5-5-5-5-5-5-5-5-5-5-5-5-|-5-5-5-5-5-5-8-8-8-8-8-8-|
|-3-3-3-3-3-3-3-3-3-3-3-3-|-3-3-3-3-3-3-6-6-6-6-6-6-|


  |-3-| |-3-| |-3-| |-3-|   |-3-| |-3-| |-3-| |-3-|
  E E E E E E E E E E E E   E E E E E E E E E E E E
|-------------------------|-------------------------|
|-------------------------|-------------------------|
|-------------------------|-------------------------|
|-------------------------|-------------------------|
|-4-4-4-4-4-4-4-4-4-4-4-4-|-4-4-4-4-4-4-4-4-4-4-4-4-|
|-2-2-2-2-2-2-2-2-2-2-2-2-|-2-2-2-2-2-2-2-2-2-2-2-2-|


  |-3-| |-3-| |-3-| |-3-|   |-3-| |-3-| |-3-| |-3-|
  E E E E E E E E E E E E   E E E E E E E E E E E E
|-------------------------|-------------------------|
|-------------------------|-------------------------|
|-------------------------|-------------------------|
|-------------------------|-------------------------|
|-2-2-2-2-2-2-2-2-2-2-2-2-|-2-2-2-2-2-2-2-2-2-2-2-2-|
|-0-0-0-0-0-0-0-0-0-0-0-0-|-0-0-0-0-0-0-0-0-0-0-0-0-|


  Gtr I
  |-3-| |-3-| |-3-| |-3-|   |-3-| |-3-| |-3-| |-3-|
  E E E E E E E E E E E E   E E E E E E E E E E E E
|-------------------------|-------------------------|
|-------------------------|-------------------------|
|-------------------------|-------------------------|
|-------------------------|-------------------------|
|-6-6-6-6-6-6-6-6-6-6-6-6-|-6-6-6-6-6-6-6-6-6-6-6-6-|
|-4-4-4-4-4-4-4-4-4-4-4-4-|-4-4-4-4-4-4-4-4-4-4-4-4-|
|
| Gtr II
| TP    TP    TP    TP      TP    TP    TP    TP
| Q     Q     Q     Q       Q     Q     Q     Q
|-------------------------|-------------------------|
|-------------------------|-------------------------|
|-------8-----7-----------|-------8-----7-----------|
|-6-----------------8-----|-9-----------------8-----|
|-------------------------|-------------------------|
|-------------------------|-------------------------|


  Gtrs I, II
  |-3-| |-3-| |-3-| |-3-|   |-3-| |-3-| |-3-| |-3-|
  E E E E E E E E E E E E   E E E E E E E E E E E E
|-------------------------|-------------------------|
|-------------------------|-------------------------|
|-------------------------|-------------------------|
|-------------------------|-------------------------|
|-5-5-5-5-5-5-5-5-5-5-5-5-|-5-5-5-5-5-5-8-8-8-8-8-8-|
|-3-3-3-3-3-3-3-3-3-3-3-3-|-3-3-3-3-3-3-6-6-6-6-6-6-|


  Gtr I
  |-3-| |-3-| |-3-| |-3-|   |--3---| |-3-| |-3-| |-3-|
  E E E E E E E E E E E E   E    E E E E E E E E E E E
|-------------------------|----------------------------|
|-------------------------|----------------------------|
|-------------------------|----------------------------|
|-------------------------|----------------------------|
|-4-4-4-4-4-4-4-4-4-4-4-4-|-4----4-4-4-4-4-4-4-4-4-4-4-|
|-2-2-2-2-2-2-2-2-2-2-2-2-|-2----2-2-2-2-2-2-2-2-2-2-2-|
|
| Gtr II
| |-3-| |-3-| |-3-| |-3-|
| E E E E E E E E E E E E   W
|-------------------------|----------------------------|
|-------------------------|----------------------------|
|-------------------------|----------------------------|
|-------------------------|-4tr5-----------------------|
|-4-4-4-4-4-4-4-4-4-4-4-4-|----------------------------|
|-2-2-2-2-2-2-2-2-2-2-2-2-|----------------------------|
                            ^This is right, if you listen closley you can hear it


    Q=130
    Gtrs I, II
       PM----|    PM----|      PM----|    PM----|
    Q  S S S S Q  S S S S   Q  S S S S Q  S S S S
||------------------------|------------------------|
||o-----------------------|------------------------|
||------------------------|------------------------|
||--9----------9----------|-7----------7-----------|
||o-7--7-7-7-7-7--7-7-7-7-|-5--5-5-5-5-5--5-5-5-5--|
||------------------------|------------------------|


  E E E E Q.   E   E E E E E E E E
|----------------|------------------||
|----------------|-----------------o||
|----------------|------------------||
|-5-7-5-4------5-|-4-5-2-5---5---5--||
|---------7------|---------5---2---o||
|----------------|------------------||


 Verse
  W          +W
|----------|--------|
|----------|--------|
|----------|--------|
|-9--------|-(9)----|
|-7--------|-(7)----|
|----------|--------|


    W          W          W          W     3x
||-----------|----------|----------|-------||
||o----------|----------|----------|------o||
||-----------|----------|----------|-------||
||-----------|----------|----------|-------||
||o----------|----------|----------|------o||
||-----------|----------|----------|-------||


Verse Pt. 2
    S S S S S S S S S S S S S S S S   S S S S S S S S S S S S S S S S
||----------------------------------|----------------------------------|
||o---------------------------------|----------------------------------|
||----------------------------------|----------------------------------|
||----------------------------------|----------------------------------|
||o---------------------------------|----------------------------------|
||--0-0-0-0-0-0-0-0-0-0-0-0-0-0-0-0-|-0-0-0-0-0-0-0-0-0-0-0-0-0-0-0-0--|


  Q.   E E E E E   E E H    Q   4x
|----------------|--------------||
|----------------|-------------o||
|----------------|--------------||
|----------------|--------------||
|----------------|-------------o||
|-6----8-6-5-6-5-|-3-2-2----3---||


   Chorus
       PM----|    PM----|      PM----|    PM----|
    Q  S S S S Q  S S S S   Q  S S S S Q  S S S S
||------------------------|------------------------|
||o-----------------------|------------------------|
||------------------------|------------------------|
||--9----------9----------|-7----------7-----------|
||o-7--7-7-7-7-7--7-7-7-7-|-5--5-5-5-5-5--5-5-5-5--|
||------------------------|------------------------|


  E E E E Q.   E   E E E E E E E E
|----------------|-----------------|
|----------------|-----------------|
|----------------|-----------------|
|-5-7-5-4------5-|-4-5-2-5---5---5-|
|---------7------|---------5---2---|
|----------------|-----------------|


     PM----|    PM----|      PM----|    PM----|
  Q  S S S S Q  S S S S   Q  S S S S Q  S S S S
|-----------------------|-----------------------|
|-----------------------|-----------------------|
|-----------------------|-----------------------|
|-9----------9----------|-7----------7----------|
|-7--7-7-7-7-7--7-7-7-7-|-5--5-5-5-5-5--5-5-5-5-|
|-----------------------|-----------------------|


  Gtr I
  E E E E Q.   E   E E E E E E E E
|----------------|------------------||
|----------------|-----------------o||
|----------------|------------------||
|-5-7-5-4------5-|-4-5-2-5---5---5--||
|---------7------|---------5---2---o||
|----------------|------------------||
|
| Gtr II
| E E E E Q.   E   E E E E E E E E
|----------------|------------------||
|----------------|-----------------o||
|--------------4-|-2-4-0-4---4---4--||
|-5-7-5-4--------|---------4---0----||
|---------7------|-----------------o||
|----------------|------------------||


   Interlude
    Gtrs I, II
    S S S S S S S S S S S S S S S S   S S S S S S S S S S S S S S S S
||----------------------------------|----------------------------------|
||o---------------------------------|----------------------------------|
||----------------------------------|----------------------------------|
||------4-4-5-5-4-4-----4-4-5-5-4-4-|-----4-4-5-5-4-4-----4-4-5-5-4-4--|
||o-7-7-------------7-7-------------|-2-2-------------2-2--------------|
||----------------------------------|----------------------------------|


  S S S S S S S S S S S S S S S S   S S S S S S S S S S S S S S S S  4x
|---------------------------------|----------------------------------||
|---------------------------------|---------------------------------o||
|---------------------------------|----------------------------------||
|-----4-4-5-5-4-4-----4-4-5-5-4-4-|-----4-4-5-5-4-4-7-7-5-5-4-4-5-5--||
|-3-3-------------3-3-------------|-5-5-----------------------------o||
|---------------------------------|----------------------------------||


   Bridge
    E S E S S S E S E S S S   E S E S S S E E E E
||--------------------------|---------------------|
||o-------------------------|---------------------|
||--------------------------|---------------------|
||--------------------------|-------------5-6-5-6-|
||o-8-7-7-7-7-7-5-7-7-7-7-7-|-8-7-7-7-7-7-3-4-3-4-|
||--6-5-5-5-5-5-3-5-5-5-5-5-|-6-5-5-5-5-5---------|


  E S E S S S E S E S S S   E S E S S S H
|-------------------------|-------------------||
|-------------------------|------------------o||
|-------------------------|-------------------||
|-------------------------|-------------------||
|-8-7-7-7-7-7-5-7-7-7-7-7-|-8-7-7-7-7-7-3----o||
|-6-5-5-5-5-5-3-5-5-5-5-5-|-6-5-5-5-5-5-1-----||

Intro again
Then just a bass part where you don't play anything
Then Verse Pt. 2


   Pre-Chorus
       PM----|    PM----|      PM----|    PM----|
    Q  S S S S Q  S S S S   Q  S S S S Q  S S S S
||------------------------|------------------------|
||o-----------------------|------------------------|
||------------------------|------------------------|
||--7----------7----------|-5----------5-----------|
||o-5--5-5-5-5-5--5-5-5-5-|-3--3-3-3-3-3--3-3-3-3--|
||------------------------|------------------------|


  E E E E Q.   E   E E E E E E E E  4x
|----------------|------------------||
|----------------|-----------------o||
|----------------|------------------||
|-3-5-3-2------3-|-2-3-0-3---3---3--||
|---------5------|---------3---0---o||
|----------------|------------------||


   Chorus
       PM----|    PM----|      PM----|    PM----|
    Q  S S S S Q  S S S S   Q  S S S S Q  S S S S
||------------------------|-------------------------|
||o-----------------------|-------------------------|
||------------------------|-------------------------|
||--9----------9----------|-7----------7------------|
||o-7--7-7-7-7-7--7-7-7-7-|-5--5-5-5-5-5--5-5-5-5---|
||------------------------|-------------------------|


  E E E E Q.   E   E E E E E E E E
|----------------|------------------|
|----------------|------------------|
|----------------|------------------|
|-5-7-5-4------5-|-4-5-2-5---5---5--|
|---------7------|---------5---2----|
|----------------|------------------|


     PM----|    PM----|      PM----|    PM----|
  Q  S S S S Q  S S S S   Q  S S S S Q  S S S S
|-----------------------|------------------------|
|-----------------------|------------------------|
|-----------------------|------------------------|
|-9----------9----------|-7----------7-----------|
|-7--7-7-7-7-7--7-7-7-7-|-5--5-5-5-5-5--5-5-5-5--|
|-----------------------|------------------------|


  Gtr I
  E E E E Q.   E   E E E E E E E E
|----------------|-------------------||
|----------------|------------------o||
|----------------|-------------------||
|-5-7-5-4------5-|-4-5-2-5---5---5---||
|---------7------|---------5---2----o||
|----------------|-------------------||
|
| Gtr II
| E E E E Q.   E   E E E E E E E E
|----------------|-------------------||
|----------------|------------------o||
|--------------4-|-2-4-0-4---4---4---||
|-5-7-5-4--------|---------4---0-----||
|---------7------|------------------o||
|----------------|-------------------||


   Outro
    Gtrs I, II
    S S S S S S S S S S S S S S S S   S S S S S S S S S S S S S S S S
||----------------------------------|----------------------------------|
||o---------------------------------|----------------------------------|
||----------------------------------|----------------------------------|
||------4-4-5-5-4-4-----4-4-5-5-4-4-|-----4-4-5-5-4-4-----4-4-5-5-4-4--|
||o-7-7-------------7-7-------------|-2-2-------------2-2--------------|
||----------------------------------|----------------------------------|


  S S S S S S S S S S S S S S S S   S S S S S S S S S S S S S S S S  4x
|---------------------------------|----------------------------------||
|---------------------------------|---------------------------------o||
|---------------------------------|----------------------------------||
|-----4-4-5-5-4-4-----4-4-5-5-4-4-|-----4-4-5-5-4-4-7-7-5-5-4-4-5-5--||
|-3-3-------------3-3-------------|-5-5-----------------------------o||
|---------------------------------|----------------------------------||


  Q=75           Q=65
  ~~~~~     ~~~~~~~~~~
  Q  Q  E E Q    Q  Q  H
|--------------|-----------*|
|--------------|-----------*|
|--------------|-----------*|
|-7--5--4-5-5--|-4---------*|
|--------------|----6--2---*|
|--------------|-------0---*|
|
| ~~~~~     ~~~~~~~~~~
| Q  Q  E E Q    Q  Q  H
|--------------|-----------*|
|--------------|-----------*|
|-5--4--2-4-4--|----4------*|
|--------------|-4---------*|
|--------------|-------2---*|
|--------------|-------0---*|


Duration Legend
---------------
W - whole; H - half; Q - quarter; E - 8th; S - 16th; T - 32nd; X - 64th; a - acciaccatura
+ - note tied to previous; . - note dotted; .. - note double dotted
Uncapitalized letters represent notes that are staccato (1/2 duration)
Irregular groupings are notated above the duration line
Duration letters will always appear directly above the note/fret number it represents the
duration for.  Duration letters with no fret number below them represent rests.  Multi-
bar rests are notated in the form Wxn, where n is the number of bars to rest for.  Low
melody durations appear below the staff

Tablature Legend
----------------
 h   - hammer-on
 p   - pull-off
 b   - bend
 pb  - pre-bend
 r   - bend release (if no number after the r, then release immediately)
 /\  - slide into or out of (from/to "nowhere")
 s   - legato slide
 S   - shift slide
  - natural harmonic
[n]  - artificial harmonic
n(n) - tapped harmonic
 ~   - vibrato
 tr  - trill
 T   - tap
 TP  - trem. picking
 PM  - palm muting
\n/  - tremolo bar dip; n = amount to dip
 \n  - tremolo bar down
 n/  - tremolo bar up
/n\  - tremolo bar inverted dip
 =   - hold bend; also acts as connecting device for hammers/pulls
 <>  - volume swell (louder/softer)
 x   - on rhythm slash represents muted slash
 o   - on rhythm slash represents single note slash

Misc Legend
-----------
 |  - bar
||  - double bar
||o - repeat start
o|| - repeat end
*|  - double bar (ending)
 :  - bar (freetime)
 $  - Segno
 &  - Coda
Tempo markers -  = BPM(8/16=s8/s16), where s8 = swing 8ths, s16 = swing 16ths


***************************************************************************************
* Generated using Power Tab Editor by Brad Larsen - http://powertab.guitarnetwork.org *
***************************************************************************************
Suggest correction
Give kudos to tab author, rate the tab!
1 2 3 4 5
comments
print report bad tab
2 comments total.
0 reply
Ratt n' Roll 205 Aug 12, 2009 05:32 PM

Perfect, Thanks so much man, This is one of my favorite cradle songs and it's just so fun to play. 5 STARS!

+1 reply
KidBARTLEY 91 Aug 31, 2009 02:02 PM

great tab man, much appreciated =]

guest
You may want to rate the tab now too:
select rating
Wanna post a correction for this tab? Suggest correction