Oops, an error
Loading. Please wait.

Her Ghost In The Fog Guitar Pro

version 8
4,043 views 1 this week
3 commentsread comments
1 2 3 4 5
excellent!
x 10
add to favorites
guitar tuner
Autoscroll
slow
fast
+/-
esc
set tempo
stop
Help us to improve Ultimate-Guitar.com Take our survey!
×
Author
Filesize
Instruments
87 Kb
lead guitar #1, lead guitar #2, bass, percussion, vocal, keyboard #1, keyboard #2, keyboard #3
"Her Ghost In The Fog"
demo version
Play now

or get full version for Free

Get full version now!
To learn and play this song
in Tab Pro, start free trial
Start free trial

or get $10 off Welcome Bonus

Get welcome bonus
Get access to Tab Pro version of “Her Ghost In The Fog”!
Tab Pro is a premium guitar tab service, available on PC, Mac, iOS and Android
START FREE TRIAL
Your download will start in 7 seconds
×
Enter for a chance to win a FREE lesson from The Doors’ guitarist Robby Krieger plus other great prizes!
To download “Her Ghost In The Fog” Guitar Pro tab click button below
Please note that you must have Guitar Pro software installed on your
computer in order to view this file.
comments
report bad tab
3 comments total.
0 reply
fanapathy 1,985 wrote on June 22 2012, 04:07 pm

This better not be another rip off of the same MSB tab and have the same basic errors and slight fixes...brb

0 reply
fanapathy 1,985 wrote on June 22 2012, 04:19 pm

Thank god, it wasn't. This is much better. The only minuses I'd give is why the flying **** would you tab it like (look bar 30-31 transition). No one is ever gonna play it like that!! What the hell were you thinking?? This happens in the other semi-riff as well!

Regardless it's a total knockout on the other tabs and 5 stars, job well done I really appreciate it and can almost learn this song now. The other mediocre tabs with the same mistakes pissed me off so much, sorry about that :) Cheers man.

0 reply
fanapathy 1,985 wrote on June 23 2012, 01:16 pm

I apologize for the above, a bit douchey when I drink :)

Anything is nitpicking. The tab sounds very good. I might as well throw in something constructive instead of just being a total retard.


----------------------------------------------------|
----------------------------------------------------|
----------------------------------------------------|
--9-----------------------9-------------------------|
--7-----------7M-7M-7M-7M-7-----------7M-7M-7M-7M---|
----------------------------------------------------|

----------------------------------------------------|
----------------------------------------------------|
----------------------------------------------------|
--7-----------------------7-------------------------|
--5-----------5M-5M-5M-5M-5-----------5M-5M-5M-5M---|
----------------------------------------------------|


The first chord is 079 and the PM is on E(0). The 2nd is same PM and the chord is either correct as is or 557.
It's similar for the x57/x35 part, they're likely 557/335 (I don't have my amp available so can't say for sure) and the PM is on E there as well


----------------------------|
----------------------------|
----------------------------|
----------------------------|
----------------------------|
--6~-------8--6--5--6--5----|


There's a missing quick hopo here (in all the tabs) and makes more sense like this on A


----------------------------|
----------------------------|
----------------------------|
----------------------------|
--1~---3-1h-3h-1-0--1--0----|
----------------------------|


...and same for the 1 octave higher part

Yours is definitely the best tab for this song on the site, well done!

guest
You may want to rate the tab now too:
select rating
Please do not post tabs as comments. Select "correction" instead!