Oops, an error
Loading. Please wait.

Honey And Sulphur Tab

version 2
version 2

Whole song

Interactive

501 views 1 this week
no commentswrite comment
1 2 3 4 5
please rate
add to favorites
launch autoscroll
font size
0
reset
how to read this tab
guitar tuner
Autoscroll
slow
fast
+/-
esc
set tempo
stop
Help us to improve Ultimate-Guitar.com Take our survey!
×
Author
#----------------------------------PLEASE NOTE---------------------------------#
#This file is the author's own work and represents their interpretation of the #
#song. You may only use this file for private study, scholarship, or research. #
#------------------------------------------------------------------------------##

                                HONEY AND SULPHUR
                         As recorded by Cradle of Filth
              (From the 2008 Album GODSPEED ON THE DEVIL'S THUNDER)

Transcribed by GuitarHero_JP

Gtr I (D G C F A D) - 'Guitar I'
Gtr II (D G C F A D) - 'Guitar II'

   Intro
    Q=190
   4/4
    Gtrs I, II
    PM--------|       PM--------|
    S S E S S E H     S S E S S E E E Q
||------------------|-------------------|
||o-----------------|-------------------|
||------------------|-------------------|
||--------------9\--|-------------7-7-7-|
||o-------------7\--|-------------5-5-5-|
||--0-0-0-0-0-0-----|-0-0-0-0-0-0-------|


  PM--------|
  S S E S S E  H       S S S S Q  S S S S Q
|--------------------|-----------------------|
|--------------------|-----------------------|
|--------------------|-----------------------|
|-------------10\----|-----------------------|
|--------------8\----|-7-7-7-7-8--5-5-5-5-7--|
|-0-0-0-0-0-0--------|-5-5-5-5-6--3-3-3-3-5--|


  PM--------|         PM--------|
  S S E S S E H       S S E S S E E E Q
|-------------------|--------------------|
|-------------------|--------------------|
|-------------------|--------------------|
|-------------9\----|-------------7-7-7--|
|-------------7\----|-------------5-5-5--|
|-0-0-0-0-0-0-------|-0-0-0-0-0-0--------|


  PM--------|
  S S E S S E H       S S S S Q  S S S S Q
|-------------------|-----------------------||
|-------------------|----------------------o||
|-------------------|-----------------------||
|-------------7\----|-----------------------||
|-------------6\----|-2-2-2-2-3--2-2-2-2-3-o||
|-0-0-0-0-0-0-------|-0-0-0-0-1--0-0-0-0-1--||


   Verse
    PM--------|         PM--------|
    S S E S S E H       S S E S S E E E Q
||--------------------|--------------------|
||o-------------------|--------------------|
||--------------------|--------------------|
||--------------9\----|-------------7-7-7--|
||o-------------7\----|-------------5-5-5--|
||--0-0-0-0-0-0-------|-0-0-0-0-0-0--------|


  PM--------|
  S S E S S E  H       S S S S Q  S S S S Q
|--------------------|------------------------|
|--------------------|------------------------|
|--------------------|------------------------|
|-------------10\----|------------------------|
|--------------8\----|-7-7-7-7-8--5-5-5-5-7---|
|-0-0-0-0-0-0--------|-5-5-5-5-6--3-3-3-3-5---|


  PM--------|         PM--------|
  S S E S S E H       S S E S S E E E Q
|-------------------|--------------------|
|-------------------|--------------------|
|-------------------|--------------------|
|-------------9\----|-------------7-7-7--|
|-------------7\----|-------------5-5-5--|
|-0-0-0-0-0-0-------|-0-0-0-0-0-0--------|


  PM--------|
  S S E S S E  H       S S S S Q  S S S S Q
|--------------------|-----------------------||
|--------------------|----------------------o||
|--------------------|-----------------------||
|-------------10\----|-----------------------||
|--------------8\----|-2-2-2-2-3--2-2-2-2-3-o||
|-0-0-0-0-0-0--------|-0-0-0-0-1--0-0-0-0-1--||


   Pre-Chorus
                                                1.
    TP   TP TP   TP   TP TP
    H    Q  Q    H    Q  Q    E E E E E E E E   E E E E E  E E  E   4x
||-------------|------------|-----------------|---------------------||
||o------------|------------|-----------------|--------------------o||
||-------------|------------|-----------------|---------------------||
||-------9-----|------8-----|-----------------|---------------------||
||o-7-------7--|-8-------8--|-----------------|--------------------o||
||-------------|------------|-5-8-5-8-4-7-4-7-|-5-8-5-8-7-10-7-10---||


  2.
  E E E E  E E Q
|-----------------||----|
|-----------------||----|
|-----------------||----|
|-----------------||----|
|-----------------||----|
|-5-8-5-8-10------||----|


   Chorus
    Q  Q  Q  Q    +W           +W           +W
||--------------|------------|------------|--------|
||o-------------|------------|------------|--------|
||--------------|------------|------------|--------|
||--------------|------------|------------|--------|
||o-3--4--7--6--|-(6)--------|-(6)--------|-(6)----|
||--1--2--5--4--|-(4)--------|-(4)--------|-(4)----|


                                               ~     ~
  Q  Q  Q  Q    +H     Q  Q    +W           Q  Q  Q  Q   4x
|-------------|--------------|------------|--------------||
|-------------|--------------|------------|-------------o||
|-------------|--------------|------------|--------------||
|-------------|--------------|------------|--------------||
|-3--4--7--6--|-(6)----7--5--|-(5)--------|----5-----4--o||
|-1--2--5--4--|-(4)----5--3--|-(3)--------|-3-----3------||


   Bridge
    TP TP TP TP   TP TP TP TP   TP TP TP TP   TP TP TP TP
    Q  Q  Q  Q    Q  Q  Q  Q    Q  Q  Q  Q    Q  Q  Q  Q    4x
||--------------|-------------|-------------|---------------||
||o-------------|-------------|-------------|--------------o||
||--------------|-------------|-------------|---------------||
||--------------|-------------|-------------|---------------||
||o-------------|-------------|-------------|--------------o||
||--4--5--7--8--|-7--8--7--5--|-4--5--7--8--|-7--8--7--5----||


   Interlude
                      PM------------|                     PM------------|
    W          +H     S S S S S S S S   W          +H     S S S S S S S S
||-----------|------------------------|----------|------------------------|
||o----------|------------------------|----------|------------------------|
||-----------|------------------------|----------|------------------------|
||--9--------|-(9)--------------------|-5--------|-(5)--------------------|
||o-7--------|-(7)----2-2-2-2-2-2-2-2-|-3--------|-(3)----5-5-5-5-5-5-5-5-|
||-----------|------------------------|----------|------------------------|


                    PM------------|        PM--------|        PM--------|
  W          +H     S S S S S S S S   H    S S E S S E   H    S S E S S E
|----------|------------------------|------------------|--------------------||
|----------|------------------------|------------------|-------------------o||
|----------|------------------------|------------------|-7------------------||
|-9--------|-(9)--------------------|-5----------------|-5------------------||
|-7--------|-(7)----2-2-2-2-2-2-2-2-|-3----3-3-3-3-3-3-|-------------------o||
|----------|------------------------|------------------|------0-0-0-0-0-0---||


   Harmony
    Gtr I
    H    E Q.     +H      H           H     H       E  E  E  E  E E  E  E
||--------------|------------------|-------------|-------------------------|
||o-------------|------------------|-------------|-10----------------------|
||--9----7h9----|-(9)----11--------|-12----11----|----12-11-12-11-9-11-12--|
||--------------|------------------|-------------|-------------------------|
||o-------------|------------------|-------------|-------------------------|
||--------------|------------------|-------------|-------------------------|
|
|   Gtr II
|   W             +H      E  E E E    W             E  E  E  E  E E  E  E
||--------------|------------------|-------------|-------------------------|
||o-------------|------------------|-------------|-------------------------|
||--------------|------------------|-------------|-------------------------|
||--------------|------------------|-------------|--7----------------------|
||o-7-----------|-(7)-----9-10-9---|-------------|----10--9-10--9-7--9-10--|
||--------------|----------------7-|--8----------|-------------------------|


  H    E Q.      H      Q     Q
|-------------|-------------------|
|-------------|-------------------|
|-9----7h9----|--9-----11----12---|
|-------------|-------------------|
|-------------|-------------------|
|-------------|-------------------|
|
| W             +H      E  E  E E
|-------------|-------------------|
|-------------|-------------------|
|-------------|-------------------|
|-------------|-------------------|
|-7-----------|-(7)-----9-10--9---|
|-------------|-----------------7-|


                    1.
   Q   Q   Q   Q     E  E  E  E  E  E  E  E
|-----------------|--------------------------||
|-----------------|-13-12-10-12-10----10----o||
|-11--12--14--12--|----------------12----12--||
|-----------------|--------------------------||
|-----------------|-------------------------o||
|-----------------|--------------------------||
|
|  W                 E  E  E  E  E  E  E  E
|-----------------|--------------------------||
|-----------------|-------------------------o||
|-----------------|--------------------------||
|-----------------|--7-----------------------||
|-----------------|----10--9-10--9--7--9-10-o||
|--8--------------|--------------------------||


  2.
   E  E  E  E Q  Q
|-------------------||----|
|-12-10----10-------||----|
|-------12----------||----|
|-------------------||----|
|-------------6--6--||----|
|-------------4--4--||----|
|
|  E  E  E  E Q  Q
|-------------------||----|
|-------------------||----|
|-------------------||----|
|-------------------||----|
|--9----10--9-6--6--||----|
|-----8-------4--4--||----|


   Bridge 2
    Gtrs I, II
    E E E E E E E E   E E E E E  E E  E   E E E E E E E E   Q  S S E  Q  Q
||------------------|-------------------|-----------------|-----------------|
||o-----------------|-------------------|-----------------|-----------------|
||------------------|-------------------|-----------------|-----------------|
||------------------|-------------------|-----------------|-9---------------|
||o-----------------|-------------------|-----------------|-7--6-6-6-10--9--|
||--5-8-5-8-4-7-4-7-|-5-8-5-8-7-10-7-10-|-5-8-5-8-4-7-4-7-|-----------8--7--|


  E E E E E E E E   E E E E E  E E  E
|-----------------|-------------------|
|-----------------|-------------------|
|-----------------|-------------------|
|-----------------|-------------------|
|-----------------|-------------------|
|-5-8-5-8-4-7-4-7-|-5-8-5-8-7-10-7-10-|


  E E E E E E E E   E  E E  E  E  E  E  E
|-----------------|--------------------------||
|-----------------|-------------------------o||
|-----------------|--------------------------||
|-----------------|--------------------------||
|-----------------|------8-11-------11-14---o||
|-5-8-5-8-4-7-4-7-|-7-10------10-13----------||

Pre-Chorus
Chorus
The play the intro as the outro


Duration Legend
---------------
W - whole; H - half; Q - quarter; E - 8th; S - 16th; T - 32nd; X - 64th; a - acciaccatura
+ - note tied to previous; . - note dotted; .. - note double dotted
Uncapitalized letters represent notes that are staccato (1/2 duration)
Irregular groupings are notated above the duration line
Duration letters will always appear directly above the note/fret number it represents the
duration for.  Duration letters with no fret number below them represent rests.  Multi-
bar rests are notated in the form Wxn, where n is the number of bars to rest for.  Low
melody durations appear below the staff

Tablature Legend
----------------
 h   - hammer-on
 p   - pull-off
 b   - bend
 pb  - pre-bend
 r   - bend release (if no number after the r, then release immediately)
 /\  - slide into or out of (from/to "nowhere")
 s   - legato slide
 S   - shift slide
  - natural harmonic
[n]  - artificial harmonic
n(n) - tapped harmonic
 ~   - vibrato
 tr  - trill
 T   - tap
 TP  - trem. picking
 PM  - palm muting
\n/  - tremolo bar dip; n = amount to dip
 \n  - tremolo bar down
 n/  - tremolo bar up
/n\  - tremolo bar inverted dip
 =   - hold bend; also acts as connecting device for hammers/pulls
 <>  - volume swell (louder/softer)
 x   - on rhythm slash represents muted slash
 o   - on rhythm slash represents single note slash

Misc Legend
-----------
 |  - bar
||  - double bar
||o - repeat start
o|| - repeat end
*|  - double bar (ending)
 :  - bar (freetime)
 $  - Segno
 &  - Coda
Tempo markers -  = BPM(8/16=s8/s16), where s8 = swing 8ths, s16 = swing 16ths


***************************************************************************************
* Generated using Power Tab Editor by Brad Larsen - http://powertab.guitarnetwork.org *
***************************************************************************************
Suggest correction
What's this?
You can suggest a correction to this tab. Community and Mods will review your correction and vote to approve or reject it.
comments
We did not receive enough feedback on this tab! Please rate:
print report bad tab
1 2 3 4 5
guest
You may want to rate the tab now too:
select rating
Please do not post tabs as comments. Select "correction" instead!