Oops, an error
Loading. Please wait.

Hurt And Virtue Tab

version 2
version 2

Whole song

Interactive

505 views 1 this week
1 commentread comment
1 2 3 4 5
please rate
add to favorites
launch autoscroll
font size
0
reset
how to read this tab
guitar tuner
Autoscroll
slow
fast
+/-
esc
set tempo
stop
Help us to improve Ultimate-Guitar.com Take our survey!
×
     -----------------------------------------------------
     |       C CRADLE OF FILTH - HURT AND VIRTUE         |
     -----------------------------------------------------
Tabbed By: Lester Klaassen
Nickname: cradleoffilth
Email: formulester@hotmail.com

Album: Damnation and a day
Year:  2003

-------------------------------------------|
 ------------------------------------------|
 ------------------------------------------|
 -------5-7-------5-7---------0-------3-5--|
 -5pm-5-----5pm-5-----1pm-1-3---3pm-3------|
 -5pm-------5pm-------1pm-------3pm--------|

 ---------------------------------|
 ---------------------------------|
 ---------------------------------|
 ---------------------------------|
 -5-----------------8-1---------3-|
 -5-----------------8-1---------3-|

 ----------------------------------|
 ----------------------------------|
 ----------------------------------|
 ----------------------------------|
 -5-5-5-5-5-5-5--8-1-1-1-1-3-3-3-3-|
 -5-5-5-5-5-5-5--8-1-1-1-1-3-3-3-3-|

 ----------------------------|
 ----------------------------|
 ----------------------------|
 ----------------------------|
 -5--------------8-1-------3-|
 -5--------------8-1-------3-|

 ---------------------------------------------|
 ---------------------------------------------|
 --------------------------------5---7---8-7--|
 ----------8-7----------8-7--5878-878-878-8-8-|
 -55555555-----55555555-----------------------|
 -55555555-----55555555-----------------------|

 -----------------------------------------|
 -----------------------------------------|
 ----------------------------5---7---8-7--|
 ---------8-7-------8-7--5878-878-878-8-8-|
 -555-555-----5-3-5-----------------------|
 -555-555-----5-3-5-----------------------|


 ----------------------------------------------------------------------------|
 ----------------------------------------------------------------------------|
 ----------------------------------------------------------------------------|
 -9----9----9----9-10-9----9----9----9-10-5----5----5----5-6-5---5---5---5-6-|
 -7----7----7----7-8 -7----7----7----7-8--3----3----3----3-4-3---3---3---3-4-|
 ---99---99---99--------99---99---99--------55---55---55-------55--55--55----|

 ----------------------------------------------|
 ----------------------------------------------|
 ----------------------------------------------|
 -7777777777777777-----------------------------|
 -55555555555555557777777777111111-----1-----1-|
 -00000000000000007777777777111111-1-1-1-1-1-1-|

 --------------------------------------------------------|
 --------------------------------------------------------|
 ------------------------------------------3-------------|
 --------5/8\7----5poff4-4b5b4-5-5-5---7-----1-----------|
 -0--0-0-------0---------------3-3---3---3---1-1-1-0-1-1-|
 -0--0-0-------0-------------------------------1-1-0-1-1-|

 ------------------------------------|
 ------------------------------------|
 ------------------------------------|
 --------2/-3--/5--/7 ~5-7----/5--\3-|
 -0---5--------------------1---------|
 -0---0--------------------1---------|


Guitar 1 and 2

 -------------------------------|
 -------------------------------|
 -------------------------------|
 -------------------------------|
 -77-5/8-77-7-7/8-8/10-10\8-7-5-|
 -77-5/8-77-7-7/8-8/10-10\8-7-5-|


Guitar 2
 --------------------------------------------------------------------------|
 --------------------------------------------------------------------------|
 ----7-9----7-9----7-9-10-9-7h9p7h9p7h9p7h9---7-9----7-9----7-9-12-10-9-10-|
 -10-----10-----10-------------------------10-----10-----10----------------|
 --------------------------------------------------------------------------|
 --------------------------------------------------------------------------|

 -------------------------------------------------------------------------|
 -------------------------------------------------------------------------|
 -------------------------------------------------------------------------|
 --------9999--------10101010--------7777--------121212121010101012121212-|
 -7777777----77778888--------88885555----55558888-------------------------|
 -------------------------------------------------------------------------|
Guitar 2

 ---------|
 ---------|
 12111011-
 ---------|
 ---------|
 ---------|

 ----------------------------|
 ----------------------------|
 ----------------------------|
 -5--7-----------------------|
 -3--5--7-9-10-9-10-12-14-12-|
 -------7-9-10-9-10-12-14-12-|


 ----------------------|
 ----------------------|
 ----------------------|
 ----------------------|
 -7-9-10-9-10-12-14-12-|
 -7-9-10-9-10-12-14-12-|


Guitar 1


 ---------------------|
 ---------------------|
 ---------------------|
 -5----5----1----3--0-|  repeat6 times
 -5----5----1----3--0-|
 -5----3----1----3--0-|

Guitar 2

 ------------------------------------|
 ------------------------------------|
 ------------------------------------|
 ---5---5-7-7--7-8-------------------|   repeat 5 times
 -----5-------5----1-3-5-3-1-0-----5-|
 -----------------1------------3-5---|
Suggest correction
Give kudos to tab author, rate the tab!
1 2 3 4 5
comments
print report bad tab
1 comment total.
0 reply
Lord_Abortion 10 wrote on January 14 2005, 12:00 am

This *** is worst then the other one.

guest
You may want to rate the tab now too:
select rating
Wanna post a correction for this tab? Suggest correction