Oops, an error
Loading. Please wait.

I Am The Thorn Tab

version 1
version 1

Whole song

Interactive

1,507 views 1 this week
4 commentsread comments
1 2 3 4 5
please rate
add to favorites
launch autoscroll
font size
0
reset
how to read this tab
guitar tuner
Tab Pro tools
  • play this tab
  • loop segment
  • change instrument
  • show fretboard
  • metronome
×
Best way to learn
"I Am The Thorn"
Autoscroll
slow
fast
+/-
esc
set tempo
stop
Contributor
Difficulty
novice
Made by : Mike

Message me for any wrong parts i have made so i can correct it, im kind of in a rush...

ZombieRitualX@aim.com
Alright.. . First tab i have EVER made so go easy on me, Maybe you guys can think of
to the solo.. i dont know the solo. But the rest of the song, i tabbed by ear in like 5
it was easy. And i play this in C tuning, like every other cradle song. But.. im pretty 
at explaining things so like i said... Go easy on me, But you'll put it all together. Enjoy.

* = Palm Mutes.
+ = Fast Picking

Intro : [the fast part]

|------------------------------|   [not gonna get to into it but
|------------------------------|    play the palm mutes as long as
|------------------------------|    Paul+Charles play it]
|------------------------------|
|-5-5-5-5-5--------------------|
|-3-3-3-3-3-0-3-5-6-5-3-5------|

    * *
  + + + + +
|------------------------------|
|------------------------------|
|------------------------------|
|---------------------8-8------|
|-2-2-2-2-2-----------7-7------|
|-0-0-0-0-0-0-3-2-0------------|
    * *     * * * *
  + + + + +


REPEAT AGAIN  But.. Another part added to the end..

|------------------------------|   [not gonna get to into it but
|------------------------------|    play the palm mutes as long as
|------------------------------|    Paul+Charles play it]
|------------------------------|
|-5-5-5-5-5--------------------|
|-3-3-3-3-3-0-3-5-6-5-3-5------|

    * *
  + + + + +
|------------------------------|
|------------------------------|
|------------------------------|
|------------------------------|
|-2-2-2-2-2-8-7-7-7-6----------|
|-0-0-0-0-0-6-5-5-5-4----------|
    * *           *
  + + + + +       +

Then,


|------------------------------|
|------------------------------|
|------------------------------|
|--------------------8-8-------|
|-2~---12-11---------7-7-------|
|-0~-0-10-9--0-3-2-0-----------|
     *

Then the fun part. [to me] lol.

|---------------------------------------------------------------|
|---------------------------------------------------------------|
|---------------------------------------------------------------|
|---------------------------------------------------------------|
|---5-6-3-3-5-1-1-3-0-0-1--5-6-3--3--5--8--7--5--7--8-7-8-7-5-3-|
|-3-----------------------3-------------------------------------|


|------------------------------|
|---8-7---7--8--8--------------|  ^^^ after that with sarah singing.
|-------9----------9-----------|
|--------------------9--8------|
|------------------------------|
|------------------------------|

Now lemme bring you to the part where after its silent and you can hear the gun clock back.


|-------------------------------------------------------|
|-------------------------------------------------------|
|-------------------------------------------------------|   [keep repeating until
|-------------------------------------------------------|    slow part with dani
|-2-2-5-4-|||-2-2-7-6-2-2-4-6--[Harmonize]33333333------|    whispering a bit]
|-0-0-3-2-|||-0-0-5-4-0-0-2-4-------------33333333------|     Which is below
 [ 2 X's ]
                                                         vvvvvvvvvvv

|------------------------------|
|------------------------------|
|------------------------------|
|------------------------------|
|-2~-8~-5~-2~-8-5-8-2----------|
|-0~-6~-3~-0~-6-3-6-0----------|


This part was a bit strange.. it has a weird sound, but i think i guessed it right. If
and you know it.. Please tell me.


|---0-0-0-0--------------------|     [for the zeros going down, just rest
|---0-0-0-0--------------------|      your hands against the strings. and
|---0-0-0-0--------------------|      pick DOWN]
|---0-0-0-0--------------------|
|-2-0-0-0-0-8-5-2-8-5-8--------|
|-0-0-0-0-0-6-3-0-6-3-6--------|

Now here is the quick part, where Dani screams out the top of his lungs, I AM THE THOOOOOORRRRNNNN

|------------------------------|
|------------------------------|
|------------------------------|
|------------------------------|   repeat [2X's]
|-7-7-7-7-7--------------------|
|-5-5-5-5-5-7-5-7-8------------|
  + + + + +
  *   *   *


|--------------------------------------------------------------------|
|--------------------------------------------------------------------|
|--------------------------------------------------------------------|
|--------------------------------------------------------------------|   repeat [2X's] 
the last one picks
|-5-5-5-5-5----------------------------------------------------------|
|-3-3-3-3-3-5-3-5-7-<--- that really fast, and goes into--8-6-5-3-3--|
  + + + + +
  *   *   *


Then the solo comes in and you keep playing the intro ..etc while solo plays.

Hope it wasnt too confusing, i tried to be as clear as possible.

Thanks and remember, any questions e-mail me or IM me at,

ZombieRitualx@aim.com

Ahh and yes, i NEVER Went for a lesson, So i dont know "tuning" im just pretty sure its 
C.
comments
We did not receive enough feedback on this tab! Please rate:
print report bad tab
1 2 3 4 5
4 comments total. Showing first comments.
0 reply
drshock wrote on November 16 2006, 08:46 pm

Cradle uses d standard

0 reply
CKYBAMHIM1990 wrote on November 27 2006, 05:17 pm

d..c w/e then i guess its d. Like i said, im not good with the tuning.

0 reply
0beta wrote on December 6 2006, 03:28 pm

they use c too but that was in the Damnation albulm and you need to put this song in some sort of order

I want to post or [tab]
guest
You may want to rate the tab now too:
select rating
Please do not post tabs as comments. Select "correction" instead!