Oops, an error
Loading. Please wait.

Libertina Grimm tab

version 2
version 2

Whole song

Interactive

939 views 3 this week
no commentswrite comment
1 2 3 4 5
2 more votes to show rating
add to favorites
×
Save as Personal and add changes to this tab that will be seen only by you. Learn more ›
×
You can save this tab as Personal to edit and correct it or add notes. All changes will be seen only by you. Learn more »
launch autoscroll
font size
0
reset
how to read this tab
guitar tuner
edit
Autoscroll
slow
fast
+/-
esc
set tempo
stop
Song: Libertina Grimm
Artist: Cradle of Filth
Album: Thornography

Tuning: Drop C
Tabbed by: Tyler Marley

Tab Legend:
.   palm mute
/   slide up
\   slide down
~   vibrato
h   hammer on
p   pull off
x   muted string


Intro:
  Guitar 1
D|-----------------------|-----------------------|-----------------------|
A|-----------------------|-----------------------|-----------------------|
F|-4/(6)-6-4/(6)-6-6/(7)-|-5/(7)-7-5/(7)-7-7/(8)-|-4/(6)-6-4/(6)-6-6/(7)-|
C|-x-----x-x-----x-x-----|-x-----x-x-----x-x-----|-x-----x-x-----x-x-----|
G|-2/(4)-4-2-(4)-4-4/(5)-|-3/(5)-5-3/(5)-5-5/(6)-|-2/(4)-4-2/(4)-4-4/(5)-|
C|-----------------------|-----------------------|-----------------------|
 |
 |Guitar 2
D|-----------------------|-----------------------|-----------------------|
A|-----------------------|-----------------------|-----------------------|
F|-----------------------|-----------------------|-----------------------|
C|-4-----4-4-----4-4---4-|-5-----5-5-----5-5---5-|-4-----4-4-----4-4---4-|
G|-4-----4-4-----4-4---4-|-5-----5-5-----5-5---5-|-4-----4-4-----4-4---4-|
C|-4-----4-4-----4-4---4-|-5-----5-5-----5-5---5-|-4-----4-4-----4-4---4-|

  Guitar 1
D|------------------------|
A|------------------------|
F|-8/(10)-10-10-7/(9)-9-9-|
C|-x------x--x--x-----x-x-|
G|-6/(8)--8--8--5/(7)-7-7-|
C|------------------------|
 |
 | Guitar 2
D|------------------------|
A|------------------------|
F|------------------------|
C|-8------8--8--7-----7-7-|
G|-8------8--8--7-----7-7-|
C|-8------8--8--7-----7-7-|


Other Intro Option (If you're jamming alone and want to sound like the 2
corresponding parts above)
D|-----------------|-----------------|-----------------|----------------|
A|-----------------|-----------------|-----------------|----------------|
F|-4h6-6-4h6-6-6-7-|-5h7-7-5h7-7-7-8-|-4h6-6-4h6-6-6-7-|-8h10-10-10-7h9-|
C|-4---4-4---4-4-4-|-5---5-5---5-5-5-|-4---4-4---4-4-4-|-8----8--8--7---|
G|-4---4-4---4-4-4-|-5---5-5---5-5-5-|-4---4-4---4-4-4-|-8----8--8--7---|
C|-4---4-4---4-4-4-|-5---5-5---5-5-5-|-4---4-4---4-4-4-|-8----8--8--7---|

  -----|
  -----|
  -9-9-|
  -7-7-|
  -7-7-|
  -7-7-|


Intro Pt. 2:
  Guitar 1
D|-------------------------------|------------------------------------|
A|-------------------------------|------------------------------------|
F|-------------------------------|------------------------------------|
C|-5-5-5-5-5-5-5-5-5-7-7-9-9-7-7-|-10-10-10-10-9h10p9-7-7-7-7-5-5-5-5-|
G|-------------------------------|------------------------------------|
C|-------------------------------|------------------------------------|
 |
 |
 | Guitar 2
D|---------------------------------|--------------------------------------|
A|---------------------------------|--------------------------------------|
F|---------------------------------|--------------------------------------|
C|---------------------------------|--------------------------------------|
G|-7-7-7-7-7-7-7-7-7-7-7-7-10-9-10-|-12-12-12-12-10-12-10-9-9-9-9-7-7-7-7-|
C|---------------------------------|--------------------------------------|


  Guitar 1
D|-------------------------------|-------------------------------------|
A|-------------------------------|-------------------------------------|
F|-------------------------------|-------------------------------------|
C|-4-4-4-4-4-4-4-4-4-5-5-7-7-5-5-|-7-7-7-7-10-10-10-10-5-5-5-5-9-9-9-9-|
G|-------------------------------|-------------------------------------|
C|-------------------------------|-------------------------------------|
 |
 |
 |Guitar 2
D|---------------------------------|-----------------------------------------|
A|---------------------------------|-----------------------------------------|
F|---------------------------------|-----------------------------------------|
C|---------------------------------|-----------------------------------------|
G|-6-6-6-6---------6-6-7-7-6-6-7-7-|-9-9-9-9-12-12-12-12-7-7-7-7-10-10-10-10-|
C|---------9-9-9-9-----------------|-----------------------------------------|


Verse: Guitars 1 and 2
D|-------------|------------------------|----------|--------------------|
A|-------------|------------------------|----------|--------------------|
F|-------------|------------------------|----------|--------------------|
C|-2-------2-2-|-/8\(7)-----7-7/(8)\(7)-|-6--------|-6-----6-6-6--6-6-6-|
G|-2-------2-2-|-/8\(7)-----7-7/(8)\(7)-|-6--------|-6-----6-6-6--6-6-6-|
C|-2-------2-2-|-/8\(7)-----7-7/(8)\(7)-|-6--------|-6-----6-6-6--6-6-6-|
           . .              .                              . . .  . . .

D|-------------|------------------------|----------|----------------|
A|-------------|------------------------|----------|----------------|
F|-------------|------------------------|----------|----------------|
C|-2-------2-2-|-/8\(7)-----7-7/(8)\(7)-|-6--------|-5--------4-5-7-|
G|-2-------2-2-|-/8\(7)-----7-7/(8)\(7)-|-6--------|-5--------4-5-7-|
C|-2-------2-2-|-/8\(7)-----7-7/(8)\(7)-|-6--------|-5--------4-5-7-|
           . .              .

D|---------------|--------------|---------------|-------------|
A|---------------|--------------|---------------|-------------|
F|---------------|--------------|---------------|-------------|
C|-4-------------|-5--------5-2-|-4-------------|-/5-4--/8-7--|
G|-4-------------|-5--------5-2-|-4-------------|-/5-4--/8-7--|
C|-4-------------|-5--------5-2-|-4-------------|-/5-4--/8-7--|


D|---------------|--------------|---------------|---------------------|
A|---------------|--------------|---------------|---------------------|
F|---------------|--------------|---------------|---------------------|
C|-4-------------|-5--------4-2-|-4-------------|-/5-4----------------|
G|-4-------------|-5--------4-2-|-4-------------|-/5-4----------------|
C|-4-------------|-5--------4-2-|-4-------------|-/5-4--8h13p8-7h12p7-|


D|----------------------------|-----------------|----------------------------|
A|----------------------------|-----------------|----------------------------|
F|----------------------------|-----------------|----------------------------|
C|-4--4-4-4-4-4-4-4-4-4-4-4-4-|-5--5-5-5-5--5-2-|-4--4-4-4-4-4-4-4-4-4-4-4-4-|
G|-4--4-4-4-4-4-4-4-4-4-4-4-4-|-5--5-5-5-5--5-2-|-4--4-4-4-4-4-4-4-4-4-4-4-4-|
C|-4--4-4-4-4-4-4-4-4-4-4-4-4-|-5--5-5-5-5--5-2-|-4--4-4-4-4-4-4-4-4-4-4-4-4-|
      . . . . . . . . . . . .      . . . .           . . . . . . . . . . . .

D|---------------------|----------------------------|-----------------|
A|---------------------|----------------------------|-----------------|
F|---------------------|----------------------------|-----------------|
C|-/5-4----------------|-4--4-4-4-4-4-4-4-4-4-4-4-4-|-5--5-5-5-5--4-2-|
G|-/5-4----------------|-4--4-4-4-4-4-4-4-4-4-4-4-4-|-5--5-5-5-5--4-2-|
C|-/5-4--8h13p8-7h12p7-|-4--4-4-4-4-4-4-4-4-4-4-4-4-|-5--5-5-5-5--4-2-|
                            . . . . . . . . . . . .      . . . .

D|----------------------------|---------------------|
A|----------------------------|---------------------|
F|----------------------------|---------------------|
C|-4--4-4-4-4-4-4-4-4-4-4-4-4-|-/5-4----------------|
G|-4--4-4-4-4-4-4-4-4-4-4-4-4-|-/5-4----------------|
C|-4--4-4-4-4-4-4-4-4-4-4-4-4-|-/5-4--8h13p8-7h12p7-|
      . . . . . . . . . . . .

Pre-Chorus: Guitars 1 and 2
D|-----------------|-----------------|
A|-----------------|-----------------|
F|-----------------|-----------------|
C|-3-3-3-4-4-5-5-5-|-3-3-3-4-4-5-5-4-|
G|-3-3-3-4-4-5-5-5-|-3-3-3-4-4-5-5-4-|
C|-3-3-3-4-4-5-5-5-|-3-3-3-4-4-5-5-4-|


Chorus...(same as intro)


Intro Pt 2


Verse


Pre-Chorus


Chorus


Interlude:
   Guitar 1
D|------------------|------------------|---------------|-------------------|
A|------------------|------------------|---------------|-------------------|
F|------------------|------------------|---------------|-------------------|
C|-3-3------3-6-5-3-|------------------|---------------|-5-7--5-8--7-7-7-7-|
G|-3-3------3-6-5-3-|-5~-------3p0h3p0-|-5~------------|-5-7--5-8--7-7-7-7-|
C|-3-3------3-6-5-3-|------------------|---------------|-5-7--5-8--7-7-7-7-|
 |(this replaces last                                              . . . .
 | chorus bar)
 |
 | Guitar 2
D|------------------|-----------------|----------------|-------------------|
A|------------------|-----------------|----------------|-------------------|
F|------------------|-7---------------|-7--------------|-------------------|
C|-3-3------3-6-5-3-|-x---------------|-x--------------|-5-7--5-8--7-7-7-7-|
G|-3-3------3-6-5-3-|-5---------------|-5--------------|-5-7--5-8--7-7-7-7-|
C|-3-3------3-6-5-3-|-----------------|----------------|-5-7--5-8--7-7-7-7-|
 (this replaces last                                               . . . .
  chorus bar)


  Guitar 1
D|------------------------|-------------------|-------------------|
A|------------------------|-------------------|-------------------|
F|------------------------|-------------------|-------------------|
C|-5-7--5-----------------|-------------------|-------------------|
G|-5-7--5-3p0h3p0-3h5p3p0-|-5~--------3p0h3p0-|-5~----------------|
C|-5-7--5-----------------|-------------------|-------------------|
 |
 |
 | Guitar 2
D|------------------------|-------------------|-------------------|
A|------------------------|-------------------|-------------------|
F|------------------------|-7-----------------|-10----------------|
C|-5-7--5-----------------|-x-----------------|-x-----------------|
G|-5-7--5-3p0h3p0-3h5p3p0-|-5-----------------|-8-----------------|
C|-5-7--5-----------------|-------------------|-------------------|


  Guitar 1
D|--------------|----------------|
A|--------------|----------------|
F|--------------|----------------|
C|-5-7--5-8--7--|-5-7--5-3-6-5-3-|
G|-5-7--5-8--7--|-5-7--5-3-6-5-3-|
C|-5-7--5-8--7--|-5-7--5-3-6-5-3-|
 |
 |
 | Guitar 2
D|--------------|----------------|
A|--------------|----------------|
F|--------------|----------------|
C|-5-7--5-8--7--|-5-7--5-3-6-5-3-|
G|-5-7--5-8--7--|-5-7--5-3-6-5-3-|
C|-5-7--5-8--7--|-5-7--5-3-6-5-3-|


Then... Guitars 1 and 2
D|-------------------|-------------|-------------------|---------------------|
A|-------------------|-------------|-------------------|---------------------|
F|-------------------|-------------|-------------------|---------------------|
C|-5-7--5-8--7-7-7-7-|-5-7--5-8--8-|-5-7--5-8--7-7-7-7-|-5-7-5---------------|
G|-5-7--5-8--7-7-7-7-|-5-7--5-8--8-|-5-7--5-8--7-7-7-7-|-5-7-5---------------|
C|-5-7--5-8--7-7-7-7-|-5-7--5-8--8-|-5-7--5-8--7-7-7-7-|-5-7-5-8h13p8-7h12p7-|
             . . . .                           . . . .
"full of hidden secrets, full of hidden secrets"


D|-------------|
A|-------------|
F|-------------|
C|-3-----------|
G|-3-----------|
C|-3-----------|


Pre-Chorus


Then...
 Guitars 1 and 2
D|-------------------------------|-------------------------------|
A|-------------------------------|-------------------------------|
F|-------------------------------|-------------------------------|
C|-------------------------------|-------------------------------|
G|-------------------------------|-------------------------------|
C|-2-2-2-2-2-2-2-2-2-4-4-5-5-4-4-|-7-7-7-7-5h7p5-4-4-4-4-2-2-2-2-|


D|--------------------------------|---------------------------------|
A|--------------------------------|---------------------------------|
F|---------8-8-8-8----------------|---------------------------------|
C|-----------------8-8-8-8-9-9-9-9|---------------------------------|
G|-6-6-6-6------------------------|---------------------------------|
C|--------------------------------|-4-4-4-4-7-7-7-7-2-2-2-2-5-5-5-5-|


D|---------------------------------|--------------------------------------|
A|---------------------------------|--------------------------------------|
F|---------------------------------|--------------------------------------|
C|---------------------------------|--------------------------------------|
G|---------------------------------|--------------------------------------|
C|-7-7-7-7-7-7-7-7-7-9-9-10-10-9-9-|-12-12-12-12-10h12p10-9-9-9-9-7-7-7-7-|


D|-------------------------------|-----------------------------------------|
A|-------------------------------|-----------------------------------------|
F|-------------------------------|-----------------------------------------|
C|-------------------------------|-----------------------------------------|
G|-------------------------------|-----------------------------------------|
C|-6-6-6-6-6-6-6-6-6-7-7-9-9-7-7-|-9-9-9-9-12-12-12-12-7-7-7-7-10-10-10-10-|

Intro Pt. 2

then...
  Guitar 1
D|---------------|--------------|-----------------------|
A|---------------|--------------|-----------------------|
F|---------------|--------------|-----------------------|
C|-4-------5-7-5-|-7--10--5--4--|-----------------------|
G|---------------|--------------|-7~--------------------|
C|---------------|--------------|-----------------------|
 | "alone... where the dead are free to roam"
 |
 | Guitar 2
D|---------------|--------------|-----------------------|
A|---------------|--------------|-----------------------|
F|---------------|--------------|-----------------------|
C|---------------|--------------|-----------------------|
G|-6-------7-9-7-|-9--12--7--6--|-7~--------------------|
C|---------------|--------------|-----------------------|

            
            
Suggest correction
Creating personal tab
Creating personal tab
You can edit any tab online and save it as your Personal.

You can edit, replace or remove any tab part or add personal notes – all changes will be seen only by you.

Personal tabs can be accessed anytime from any device, even offline.
Learn more »
Give kudos to tab author, rate the tab!
1 2 3 4 5
comments
print report bad tab
guest
You may want to rate the tab now too:
select rating
Wanna post a correction for this tab? Suggest correction