Oops, an error
Loading. Please wait.

Lord Abortion Bass Tab

version 2
version 2

Whole song

Interactive

193 views 1 this week
no commentswrite comment
1 2 3 4 5
3 more votes to show rating
add to favorites
launch autoscroll
font size
0
reset
guitar tuner
Autoscroll
slow
fast
+/-
esc
set tempo
stop
Help us to improve Ultimate-Guitar.com Take our survey!
×
Author
Difficulty
advanced
Tab made by 6Metal6Bassist6

Email: Petergriffinav@gmail.com

||---------------------------------|
||---------------------------------|
||000000000000000044444444333333330|
||---------------------------------|

||--------------------------3----------------------------------|
||-------------------------2-2---------------------------------|
||0000000000000000333333331----00000000000000004444444433333333|
||-------------------------------------------------------------|

||--------------------------3-----------------------------------|
||-------------------------2-2----------------------------------|
||0000000000000000333333331----000000000000000044444444333333330|
||--------------------------------------------------------------|

||--------------------------3----------------------------------|
||-------------------------2-2---------------------------------|
||0000000000000000333333331----00000000000000004444444433333333|
||-------------------------------------------------------------|

||----------------------------------------------------------------|
||----------------------------------------------------------------| x2
||0000000000000000333333331111111100000000000000004444444433333333|
||----------------------------------------------------------------|

||---------------|
||---------------|x4
||--1---1---1-2-1|
||0---0---0------|

||------------------|
||------------------| x4
||---1----1----1-2-1|
||00---00---00------|

||----------------------------------------------------------------|
||----------------------------------------------------------------|
||2222222222222222333333333333333344444444444444445555555555555555|
||----------------------------------------------------------------|

||---------------------------------------------------------------|
||33333333333333335555555555555555666666666666666622222222-------|
||----------------------------------------------------------1---1|
||--------------------------------------------------------0---0--|

||----------------------------------------------------------------|
||----------------------------------------------------------------|
||2222222222222222333333333333333344444444444444445555555555555555|
||----------------------------------------------------------------|

||----------------------------------------------------------------|
||3333333333333333555555555555555566666666666666662222222222222222|
||----------------------------------------------------------------|
||----------------------------------------------------------------|

||------------------|
||------------------| x4
||---1----1----1-2-1|
||00---00---00------|

||----------------------------------------------------------------|
||----------------------------------------------------------------|x2
||0000000000000000333333331111111100000000000000004444444433333333|
||----------------------------------------------------------------|

||----------------------------------------------------------------|
||----------------------------------------------------------------|
||2222222222222222333333333333333344444444444444445555555555555555|
||----------------------------------------------------------------|

||----------------------------------------------------------------|
||3333333333333333555555555555555566666666666666662222222222222222|
||----------------------------------------------------------------|
||----------------------------------------------------------------|
        
|----------------------------------------|
|----------------------------------------| x2
|7-7777-7578-878-10-10-857-7573-5-0-8-7-3|
|----------------------------------------|

||------------------------------------|
||------------------------------------| x2
||-----------------------------0-8-7-3|
||5-5555-5356-6568-8635-5350-1--------|

||----------------------------------------------------------------|
||--------------------------6-5------------------------------2-3--| x2
||------------------------4-----7--------------------------1-----4|
||0-0-0-3-0-0-5-0-0-3-5-6----------0-0-0-3-0-0-5-0-0-3-5-6--------|

||------------------------------------------------|
||------------------------------------------------| x4
||111111111111333333222222444444444444222222333333|
||------------------------------------------------|

||----------------------------------------------------------------|
||--------------------------6-5------------------------------2-3--| x2
||------------------------4-----7--------------------------1-----4|
||0-0-0-3-0-0-5-0-0-3-5-6----------0-0-0-3-0-0-5-0-0-3-5-6--------|
Bass stops at 3:48
Bass comes back in at 4:18
||------------------------------------|
||-4-5-2-2-------4-4-5-1-1-2----------| x4
||----------3-2---------------2--2-3-2|
||------------------------------------|

||-------------------------|
||-------------------------|x2
||0-----3---1---0-----4---3|
||-------------------------|

||----------------------------------------------------------------|
||----------------------------------------------------------------| x2
||0000000000000000333333331111111100000000000000004444444433333333|
||----------------------------------------------------------------|

||------------------|
||------------------| x8
||---1----1----1-2-1|
||00---00---00------|

||----------------------------------------------------------------|
||----------------------------------------------------------------|
||2222222222222222333333333333333344444444444444445555555555555555|
||----------------------------------------------------------------|

||--------------------------------------------------------|
||33333333333333335555555555555555666666666666666622222222|
||--------------------------------------------------------|
||--------------------------------------------------------|

||-------------------------|
||-------------------------|
||--1---1---1---1---1---1--|
||0---0---0---0---0---0---0|
Suggest correction
Give kudos to tab author, rate the tab!
1 2 3 4 5
comments
print report bad tab
guest
You may want to rate the tab now too:
select rating
Wanna post a correction for this tab? Suggest correction