Oops, an error
Loading. Please wait.

Lovesick For Mina Bass Tab

version 1
version 1

Whole song

Interactive

487 views 3 this week
no commentswrite comment
1 2 3 4 5
please rate
add to favorites
launch autoscroll
font size
0
reset
guitar tuner
Autoscroll
slow
fast
+/-
esc
set tempo
stop
Help us to improve Ultimate-Guitar.com Take our survey!
×
Author
Difficulty
Tuning
intermediate
C G C F A D
-------------------------------------------------------------------------------
			     Lovesick for Mina - Cradle of Filth
-------------------------------------------------------------------------------

Tabbed By : Necrotic
e-mail: Joelschwallier@gmail.com

Tuning: CGCF
Drop C

Intro 0:17
F|----------------------------------------|
C|----------------------------------------|
G|----------------------------------------|
C|3230-3230-3235-3230-3230-3230-2023-2030-|x4

After Intro
F|--------------------------|
C|--------------------------|
G|--------------------------|
C|3-3--33-3-56-2-2--22-2-65-|x2

Early Chorus
F|-------------------------------------|
C|-------------------------------------|
G|333333333333-3/6/7---------6-7-6-----|
C|-------------------66666666-----6666-|

F|------------------------------------|
C|------------------------------------|
G|333333333333-3/6/7----------7-6-----|
C|-------------------66666666-----8-3-|

Early Verse
F|---------------------|
C|---------------------|
G|---------------------|
C|5555556-333333-6h8p6-|x6

Early Verse part 2
F|----------------|
C|----------------|
G|----------------|
C|5555556-3333336-|x2

Interlude
F|----------------------|
C|----------------------|
G|------6523-------5302-|
C|3--35------2--23------|x4

Pre-verse
F|----------------------------|
C|----------------------------|
G|----3-2-----------3-5-2-----|
C|2---------6-7-2---------6-7-|x4

Verse
F|------------------------------------|
C|------------------------------------|
G|------------------------------------|
C|2-2-3202-2-2-5302-2-2-3202-55556656-|x4

Chorus
F|----------------------------------------|
C|022-2-2-022-2-2-0232--------------------|
G|--------------------7/5--5--5/1--1--110-|
C|----------------------------------------|x4

Pre-verse
F|----------------------------|
C|----------------------------|
G|----3-2-----------3-5-2-----|
C|2---------6-7-2---------6-7-|x4

Verse
F|------------------------------------|
C|------------------------------------|
G|------------------------------------|
C|2-2-3202-2-2-5302-2-2-3202-55556656-|x4

Chorus
F|----------------------------------------|
C|022-2-2-022-2-2-0232--------------------|
G|--------------------7/5--5--5/1--1--110-|
C|----------------------------------------|x6

Marching Riff
F|------------------------|
C|------------------------|
G|------------------------|
C|2-320222--3-2-3202-6502-|x4

Interlude
F|----------------------|
C|----------------------|
G|------6523-------5302-|
C|3--35------2--23------|x8

Interlude Part 2
F|----------------|
C|----------------|
G|----------------|
C|6-------5-------|x2

Early Chorus (whole Chorus twice)
F|-------------------------------------|
C|-------------------------------------|
G|333333333333-3/5/6---------6-7-6-----|
C|-------------------66666666-----6666-|

F|------------------------------------|
C|------------------------------------|
G|333333333333-3/6/7----------7-6-----|
C|-------------------66666666-----8-3-| x2 

| /  slide up
| \  slide down
| h  hammer-on
| p  pull-off
| ~  vibrato
| +  harmonic
| x  Mute note
===============================================================================
Suggest correction
Give kudos to tab author, rate the tab!
1 2 3 4 5
comments
print report bad tab
guest
You may want to rate the tab now too:
select rating
Please do not post tabs as comments. Select "correction" instead!