Oops, an error
Loading. Please wait.

Lovesick For Mina Tab

version 2
version 2

Intro

Whole song

Interactive

2,974 views 1 this week
2 commentsread comments
1 2 3 4 5
x 4
add to favorites
launch autoscroll
font size
0
reset
how to read this tab
guitar tuner
Autoscroll
slow
fast
+/-
esc
set tempo
stop
Help us to improve Ultimate-Guitar.com Take our survey!
×
Author
Difficulty
novice
Cradle of Filth - Lovesick For Mina
Album: Thornography
Tabber: Mattias Rasmussen
Comments? xfilth@gmail.com

-----

Tuning: Standart 1 step down (DGCFAD)

----- 

Intro:


185 bpm

Gtr. 1

      Gm 
     Q    Q    |--3--|   Q        Q     Q    Q     Q           
||--------8----7h-8p-7---------|--7---------------------|
||---10------------------10----|-------10---------10----|
||*----------------------------|-------------9----------|
||*----------------------------|------------------------|
||-----------------------------|------------------------|
||-----------------------------|------------------------|

  D#m  
   Q       Q       Q      Q       Q    E  E  H    
|--8---------------------------|--8----9--8-------------||
|----------9--------------9----|-------------9~---------||
|-----------------10-----------|-----------------------*||
|------------------------------|-----------------------*||
|------------------------------|------------------------||
|------------------------------|------------------------||

Gtr. 2

     Q     Q      Q      Q        Q     Q    Q     Q
||-----------------------------|------------------------|
||-----------------------------|------------------------|
||*----------------------------|------------------------|
||*--------7------9------7-----|--9-----7----------7----|
||---7-------------------------|-------------7----------|
||-----------------------------|------------------------|

   Q     Q       Q      Q         Q    Q    Q    Q 
|------------------------------|------------------------||
|------------------------------|------------------------||
|------------------------------|-----------------------*||
|---------6------10------6-----|--10----6---------6----*||
|---8--------------------------|-------------8----------||
|------------------------------|------------------------||

Gtr. 1

   Gsus4/A#    
      Q   Q       Q      Q         Q     Q    Q    Q
||-----------------------------|------8/10--------------|
||---10------------------------|--10---------13---12----|
||*-------9--------------9-----|------------------------|
||*--------------10------------|------------------------|
||-----------------------------|------------------------|
||-----------------------------|------------------------|

  D#m  
     Q    Q       Q       Q        Q     Q     Q     Q    
|------------------------------|--------13--------------||
|---13-------------------------|--13----------13--------||
|--------13--------------13----|--------------------13-*||
|----------------15------------|-----------------------*||
|------------------------------|------------------------||
|------------------------------|------------------------||
                    

Gtr. 2
     Q       Q     Q      Q       Q     Q    Q     Q
||-----------------------------|------------------------|
||-----------------------------|------------------------|
||*----------------------------|------------------------|
||*--7-------------------------|-------------7----------|
||-----------------7-----------|--------7----------7----|
||-----------8------------5----|--8---------------------|

   Q       Q    Q    Q           E   E   Q    Q    Q          
|----------------------------|--------------------------||
|----------------------------|--------------------------||
|--5-------------------------|--10---------------------*||
|---------------6------------|------10-----------------*||
|----------8-----------------|----------11--------------||
|--------------------8-------|----------------8----4----||



Enjoy

Suggest correction
comments
print report bad tab
2 comments total.
0 reply
zombiexeater7 30 Aug 25, 2007 06:29 AM

awsome man.gtrpro???

0 reply
linkinparkmat 10 Feb 20, 2008 10:01 AM

http://www.ultimate-guitar.com/tabs/c/cradle_of_filth/lovesick_for_mina_intro_guitar_pro.htm?voted

Right here mate ;)

guest
You may want to rate the tab now too:
select rating
Wanna post a correction for this tab? Suggest correction