Oops, an error
Loading. Please wait.

Lovesick For Mina Tab

version 1
version 1

Whole song

Interactive

3,645 views 1 this week
5 commentsread comments
1 2 3 4 5
please rate
add to favorites
launch autoscroll
font size
0
reset
how to read this tab
guitar tuner
Autoscroll
slow
fast
+/-
esc
set tempo
stop
Help us to improve Ultimate-Guitar.com Take our survey!
×
Author
Difficulty
Tuning
novice
D A D G B E
+--------------------------------------------------------------------------+
| This file is the author's own work and represents their interpretation   |
| of the song. You may only use this file for private study, scholarship,  |
| or research.                                                             |
+--------------------------------------------------------------------------+

Artist: Cradle of Filth - Lovesick For Mina
Album: Thornography (2006)
Tuning: DADGBe (Drop D)
Tabbed by: Kasper K.

Since there's no complete tabs of this song, i decided to make one.
Everything is there, except for the intro. There's 'nuff tabs of that already.
Hope you like it. Please rate and comment, thanks!

*UPDATE* Thanks to maggot310 for help correcting Riff 8, it should be correct now.

Look at bottom for order to play the song, and listen to song for rhytm.

. = palm mute
~ = let ring
h = hammer on
\ = slide down
/ = slide up
tr = tremolo picking

[RIFF 1]

e|-------------------------------------|
B|-------------------------------------|
G|-------------------------------------|
D|-8-7-8----8-7-8----8-7-8-10-8-7-8----|
A|-------10-------10----------------10-|
D|-------------------------------------|

e|-------------------------------------|
B|-------------------------------------|
G|-------------------------------------|
D|-8-7-8----8-7-8----------------------|
A|-------10-------10-7-9-10----7h9-----|
D|--------------------------10---------|

Play this 4 times

End by playing this:
e|---------------------------------------------------|
B|---------------------------------------------------|
G|---------------------------------------------------|
D|-8-7-8----8-7-8------------------------------------|
A|-------10-------10-7-9-10----7h9-13-15-16----13h15-|
D|--------------------------10--------------16-------|

[RIFF 2]

e|-----------------|
B|-----------------|
G|-----------------|
D|-5~-4~-5~-4~-8-1-|
A|-5~-4~-5~-4~-8-1-|
D|-5~-4~-5~-4~-8-1-|

Play this 1 time

[RIFF 3]

e|-------------------------------------------------------|
B|----------------------------14----------14-15-14-------|
G|-15-14-12-14-15-14-12-14-15----14-11-14----------14-11-|
D|-------------------------------------------------------|
A|-------------------------------------------------------|
D|-------------------------------------------------------|

e|-------------------------------------------------------|
B|----------------------------14----------16-------------|
G|-15-14-12-14-15-14-12-14-15----14-11-14----15-11-------|
D|-------------------------------------------------13----|
A|-------------------------------------------------------|
D|-------------------------------------------------------|

Play this 1 time

(No guitar from 01:22-01:52.)

[RIFF 4]

e|-----------------------------------|
B|-----------------------------------|
G|-4-3-3-6-4-11-7-3-3-6--------------|
D|-4-3-3-6-4-11-7-3-3-6--------------|
A|-2-1-1-4-2--9-5-1-1-4--------------|
D|-----------------------------------|

Play this 3 times

[RIFF 5A]

e|-----------------------------------|
B|-----------------------------------|
G|-----------------------------------|
D|-0-7-6-2/3-0-7-10-9-7h9-7\6-0------|
A|-0-7-6-2/3-0-7-10-9-7h9-7\6-0------|
D|-0-7-6-2/3-0-7-10-9-7h9-7\6-0------|

e|-----------------------------------|
B|-----------------------------------|
G|-----------------------------------|
D|-0-7-6-2/3-0-x-0-x-3\2-3\2---------|
A|-0-7-6-2/3-0-x-0-x-3\2-3\2---------|
D|-0-7-6-2/3-0-x-0-x-3\2-3\2---------|

Play this 2 times

[RIFF 5B]

e|-----------------------------------|
B|-----------------------------------|
G|-----------------------------------|
D|-4-4-5/4-5/4-4-4-7-5-4-5-----------|
A|-4-4-5/4-5/4-4-4-7-5-4-5-----------|
D|-4-4-5/4-5/4-4-4-7-5-4-5-----------|
                   . . . .
e|-----------------------------------|
B|-----------------------------------|
G|-----------------------------------|
D|-4-4-5\4-5\4-7-7-8\7-5/7-----------|
A|-4-4-5\4-5\4-7-7-8\7-5/7-----------|
D|-4-4-5\4-5\4-7-7-8\7-5/7-----------|

Play this 4 times

[RIFF 6]

e|---------------------------------------|
B|---------------------------------------|
G|-5/7---5/7-----------------------------|
D|-5/7-0-5/7-0---------12\10-10-10\6-6-3-|
A|-3/5-0-3/5-0---------12\10-10-10\6-6-3-|
D|-----0-----0-0 2-3-0-12\10-10-10\6-6-3-|
               . . . .
Play this 3 times

[RIFF 7]

e|-----------------------------------|
B|-----------------------------------|
G|-----------------------------------|
D|-0-0000-11-1-0-0000-3h4-3\1-0------|
A|-0-0000-11-1-0-0000-3h4-3\1-0------|
D|-0-0000-11-1-0-0000-3h4-3\1-0------|
     ....        ....

e|-----------------------------------|
B|-----------------------------------|
G|-----------------------------------|
D|-0-0000-11-1-0-0000----------------|
A|-0-0000-11-1-0-0000----------------|
D|-0-0000-11-1-0-0000-3tr4tr3tr1tr0--|
     ....        .... ... ... .

Play this 2 times

[RIFF 8]

e|------------------|
B|------------------|
G|------------------|
D|-8---8-7-10-7-8---|
A|---8--------------|
D|------------------|

Play this 4 times

[RIFF 9]

Rhytm guitar:
e|-----------------|
B|-----------------|
G|-----------------|
D|-5~-4~-5~-4~-8-1-|
A|-5~-4~-5~-4~-8-1-|
D|-5~-4~-5~-4~-8-1-|

Lead guitar:
e|-------------------------------------|
B|-------------------------------------|
G|-------------------------------------|
D|---8-7-5---8-7-5---8-7-5-------------|
A|-5-------5-------5-------5---5-------|
D|---------------------------8---------|

e|-------------------------------------|
B|-------------------------------------|
G|-------------------------------------|
D|---11-7-6---11-7-6---11-7-6---11-7-6-|
A|-9--------9--------9--------9--------|
D|-------------------------------------|

Play this 2 times

+----------------------+
Order to play the song:

1: Riff 1
2: Riff 2
3: Riff 3
4: Riff 4
5: Riff 5A
6: Riff 5B
7: Riff 6
8: Riff 5A
9: Riff 5B
10: Riff 6
11: Riff 7
12: Riff 8
13: Riff 9
14: Riff 3
+----------------------+
Suggest correction
Give kudos to tab author, rate the tab!
1 2 3 4 5
comments
print report bad tab
5 comments total. Showing first comments.
0 reply
maggot310 15 wrote on June 29 2007, 02:06 pm

Perfect tab. Although in riff 8 it goes like this i think:

e|------------------
B|------------------
G|------------------
D|-8---8-7-10-7-8---
A|---8------------8-
D|------------------

other than that the tab is great.

0 reply
Krisp 167 wrote on July 7 2007, 12:37 pm

Thanks a lot dude, i updated the tab. :)

0 reply
pickslide21 15 wrote on January 3 2008, 03:13 pm

e|---------------------------------------|
B|---------------------------------------|
G|-5/7---5/7--------------------
---------|
D|-5/7-0-5/7-0-------0-12\10-10-10\6-6-3-|
A|-3/5-0-3/5-0-0-2-3---12\10-10-10\6-6-3-|
D|-----0-----0------
---12\10-10-10\6-6-3-|
. . . .
i think riff 6 is like this you have the numbers right but on the wrong
string

guest
You may want to rate the tab now too:
select rating
Please do not post tabs as comments. Select "correction" instead!