Oops, an error
Loading. Please wait.

Lovesick For Mina Tab

version 2
version 2

Whole song

Interactive

964 views 1 this week
no commentswrite comment
1 2 3 4 5
1 last vote to show rating
add to favorites
launch autoscroll
font size
0
reset
how to read this tab
guitar tuner
Autoscroll
slow
fast
+/-
esc
set tempo
stop
Help us to improve Ultimate-Guitar.com Take our survey!
×
Author
     _____________________________________________________________
     Cradle Of Filth
     Lovesick For Mina
     Thornography
     ______________________________________________________________

[Riff 1]
D|-------------------------------------------------------------------------|
A|-------------------------------------------------------------------------|
F|-------------------------------------------------------------------------|
C|10-9-10-7-10-9-10-7-10-9-10-12-10-9-10-7-10-9-10-7-10-9-10-7-4-6-7-2-4h6-|
G|-------------------------------------------------------------------------|
D|-------------------------------------------------------------------------|
PLAY THIS 4 times|END PLAYING THIS                  [Riff 2]
|--------------------------------------------------|--------------------|
|--------------------------------------------------|--------------------|
|--------------------------------------------------|--------------------|
|10-9-10-7-10-9-10-7-4-6-7-0-4h6-10-12-13----10h12-|----------------5~--|
|-----------------------------------------13-------|7~~~6~~~7~~~6~~~3~-3|
|--------------------------------------------------|5~~~4~~~5~~~4~~~---1|
Riff 3
|---------------------------11---------12-13-12---------------------------11-|
|13-12-10-12-13-12-10-12-13---12-9-12----------12-9-13-12-10-12-13-12-10-----|
|----------------------------------------------------------------------------|
|----------------------------------------------------------------------------|
|----------------------------------------------------------------------------|
-----------------------------------------------------------------------------|
                     [Riff 4]x3           [riff 5]x2
|--------13---------|--------------------|----------------------------------|
|12-9-12----14-9----|--------------------|----------------------------------|
|----------------10-|----------8---------|----------------------------------|
|-------------------|6-5-5-8-6-6-9-5-5-8-|--4-3-------4-7-6-4-6-4/3-----4-3-|
|-------------------|4-3-3-6-4---7-3-3-6-|2-2-1-4/5-2-2-5-4-2-4-2/1-2-2-2-1-|
|-------------------|--------------------|0-----2/3-0---------------0-0-----|
                        [Riff 6]x4
|--------------------|-----------------------------------------------------|
|--------------------|-----------------------------------------------------|
|--------------------|-----------------------------------------------------|
|--------------------|-----------------------------------------------------|
|4/5-2-x-2-x-5/4-5/4-|6-6-7-/6-7-6-6-6-9-7-6-7-6-6-7-/6-7-/6-9-9-10-/9-7/7-|
|2/3-0-x-0-x-3/2-3/2-|4-4-5-/4-5-4-4-4-7-5-4-5-4-4-5-/4-5-/4-7-7-8--/7-5/9-|
[Riff 7]x3                               . . . . [Riff 8]x2
|----------------------------------|-----------------------------------------|
|----------------------------------|-----------------------------------------|
|----------------------------------|-----------------------------------------|
|7/9---7/9-----------9/7-7-7-3-3---|-----------------------------------------|
|5/7-2-5/7-2---------7/5-5-5-1-1-5-|2-2222-3-3-3-2-2222-5/6-5/3-2-2-2222-3-3-|
|----0-----0-0-2-3-0-------------3-|0-0000-1-1-1-0-0000-3/4-3/1-0-0-0000-1-1-|

             . . . .                  ....         ....             ....
|--------------------|
|--------------------|
|--------------------|
|--------------------|
|3-2-2222------------|
|1-0-0000-3t4t3t1t0t-|
     .... . . . . .
Suggest correction
Give kudos to tab author, rate the tab!
1 2 3 4 5
comments
print report bad tab
guest
You may want to rate the tab now too:
select rating
Wanna post a correction for this tab? Suggest correction