Oops, an error
Loading. Please wait.

Lovesick For Mina Tab

version 3
version 3

Whole song

Interactive

323 views 1 this week
no commentswrite comment
1 2 3 4 5
please rate
add to favorites
launch autoscroll
font size
0
reset
how to read this tab
guitar tuner
Tab Pro tools
  • play this tab
  • loop segment
  • change instrument
  • show fretboard
  • metronome
×
Best way to learn
"Lovesick For Mina"
Autoscroll
slow
fast
+/-
esc
set tempo
stop
Contributor
-----------------------------------------------------------------------------
                             Lovesick For Mina - Cradle of Filth
-----------------------------------------------------------------------------
Tabbed by:ffgdcpzae
Email:....@gmail.com

Tuning:DADGBe (Drop D)

Intro

e|-------------------------------------------------------------------------|
B|--8-11-10h11p10-8-10-8---8-11-8---8-11-13p11-7---------------------------|
G|o----------------------7--------8---------------------------------------o|
D|o-----------------------------------------------------------------------o|
A|-------------------------------------------------------------------------|
E|-------------------------------------------------------------------------|
 |                                      
e|-------------------------------------------------------------------------|
B|-------------------------------------------------------------------------|
G|o-----3---3-----------3---3---------------------------------------------o|
D|o---5---5---5---5---4---4---4---4---------------------------------------o|
A|--5-----------5---6-----------6------------------------------------------|
E|-------------------------------------------------------------------------|

e|-------------------------------------------------------------------------|
B|--8-------8-8/13-11-10-11-8---8-11-11/16-11-7----------------------------|
G|o---7---7-------------------8-------------------------------------------o|
D|o-----8-----------------------------------------------------------------o|
A|-------------------------------------------------------------------------|
E|-------------------------------------------------------------------------|
 |
e|-------------------------------------------------------------------------|
B|------------------------4-6p4--------------------------------------------|
G|o-3-0-----------0---0-3-------3-0---------------------------------------o| 
D|o-----0-------0---1---------------1-------------------------------------o|
A|--------1---1------------------------------------------------------------|
E|----------5--------------------------------------------------------------|

Heavy Part...
Riff 1
e|---------------------------------------|
B|---------------------------------------|
G|--------------------------5------------|
D|-8-7-8-5--8-7-8-5--8-7-8-----8-7-8-5---|
A|---------------------------------------|
D|---------------------------------------|

e|---------------------------------------|
B|---------------------------------------|
G|---------------------------------------|
D|-8-7-8-5--8-7-8-5----------------------|
A|------------------7-9-10----7h9--------|
D|-------------------------10------------|
play this 4 times

e|---------------------------------------------------|
B|---------------------------------------------------|
G|---------------------------------------------------|
D|-8-7-8-5--8-7-8-5----------------------------------|
A|-------------------7-9-10----7h9-13-15-16----13h15-|
D|--------------------------10--------------16-------|

Riff 2
e|-----------------|
B|-----------------|
G|-----------------|
D|-5~-4~-5~-4~-8-1-|
A|-5~-4~-5~-4~-8-1-|
D|-5~-4~-5~-4~-8-1-|

Riff 3
e|----------------------------------------------------------|
B|----------------------------/14----------/14-15-14--------|
G|-/15-14-12-14-15-14-12-14-15----14-11-14----------/14-/11-|
D|----------------------------------------------------------|
A|----------------------------------------------------------|
D|----------------------------------------------------------|
 |
e|----------------------------------/5-5~-------------------|
B|-------------------/7---7---7-8-7-------------------------|
G|-/7-5---5-7-5---5-7---5---5-------------------------------|
D|------8-------8-------------------------------------------|
A|----------------------------------------------------------|
D|----------------------------------------------------------|

e|------------------------------------------------------------|
B|-----------------------------/14----------/14-16------------|
G|-/15-14-12-14-15-14-12-14-15-----14-11-14--------15-11------|
D|-------------------------------------------------------13~\-|
A|------------------------------------------------------------|
D|------------------------------------------------------------|
 |
e|------------------------------------------------------------|
B|-------------------/7---7---7-4-----------------------------|
G|-/7-5---5-7-5---5-7---5---5-----3---------------------------|
D|------8-------8---------------------------------------------|
A|----------------------------------6~\-----------------------|
D|------------------------------------------------------------|

Piano... No guitar from 01:22-01:52

Riff 4
e|-----------------------------------|
B|-----------------------------------|
G|-4-3-3-6-4-11-7-3-3-6--------------|
D|-4-3-3-6-4-11-7-3-3-6--------------|
A|-2-1-1-4-2--9-5-1-1-4--------------|
D|-----------------------------------|
Play this 3 times

Riff 5
e|-----------------------------------|
B|-----------------------------------|
G|-----------------------------------|
D|-0-7-6-2/3-0-7-10-9-7h9-7\6-0------|
A|-0-7-6-2/3-0-7-10-9-7h9-7\6-0------|
D|-0-7-6-2/3-0-7-10-9-7h9-7\6-0------|

e|-----------------------------------|
B|-----------------------------------|
G|-----------------------------------|
D|-0-7-6-2/3-0-x-0-x-3\2-3\2---------|
A|-0-7-6-2/3-0-x-0-x-3\2-3\2---------|
D|-0-7-6-2/3-0-x-0-x-3\2-3\2---------|
Play this 2 times

Riff 6
e|-----------------------------------|
B|-----------------------------------|
G|-----------------------------------|
D|-4-4-5/4-5/4-4-4-7-5-4-5-----------|
A|-4-4-5/4-5/4-4-4-7-5-4-5-----------|
D|-4-4-5/4-5/4-4-4-7-5-4-5-----------|
                   . . . .

e|-----------------------------------|
B|-----------------------------------|
G|-----------------------------------|
D|-4-4-5\4-5\4-7-7-8\7-5/7-----------|
A|-4-4-5\4-5\4-7-7-8\7-5/7-----------|
D|-4-4-5\4-5\4-7-7-8\7-5/7-----------|
Play this 4 times

Riff 7
e|---------------------------------------|
B|---------------------------------------|
G|-5/7---5/7-----------------------------|
D|-5/7-0-5/7-0---------12\10-10-10\6-6-3-|
A|-3/5-0-3/5-0-0-2-3-0-12\10-10-10\6-6-3-|
D|-----0-----0---------12\10-10-10\6-6-3-|
               . . . .
Play this 3 times

Riff 5
e|-----------------------------------|
B|-----------------------------------|
G|-----------------------------------|
D|-0-7-6-2/3-0-7-10-9-7h9-7\6-0------|
A|-0-7-6-2/3-0-7-10-9-7h9-7\6-0------|
D|-0-7-6-2/3-0-7-10-9-7h9-7\6-0------|

e|-----------------------------------|
B|-----------------------------------|
G|-----------------------------------|
D|-0-7-6-2/3-0-x-0-x-3\2-3\2---------|
A|-0-7-6-2/3-0-x-0-x-3\2-3\2---------|
D|-0-7-6-2/3-0-x-0-x-3\2-3\2---------|
Play this 2 times

Riff 6
e|-----------------------------------|
B|-----------------------------------|
G|-----------------------------------|
D|-4-4-5/4-5/4-4-4-7-5-4-5-----------|
A|-4-4-5/4-5/4-4-4-7-5-4-5-----------|
D|-4-4-5/4-5/4-4-4-7-5-4-5-----------|
                   . . . .

e|-----------------------------------|
B|-----------------------------------|
G|-----------------------------------|
D|-4-4-5\4-5\4-7-7-8\7-5/7-----------|
A|-4-4-5\4-5\4-7-7-8\7-5/7-----------|
D|-4-4-5\4-5\4-7-7-8\7-5/7-----------|
Play this 4 times

Riff 7
e|---------------------------------------|
B|---------------------------------------|
G|-5/7---5/7-----------------------------|
D|-5/7-0-5/7-0---------12\10-10-10\6-6-3-|
A|-3/5-0-3/5-0-0-2-3-0-12\10-10-10\6-6-3-|
D|-----0-----0---------12\10-10-10\6-6-3-|
               . . . .
Play this 6 times

Riff 8
e|-----------------------------------|
B|-----------------------------------|
G|-----------------------------------|
D|-0-0000-11-1-0-0000-3h4-3\1-0------|
A|-0-0000-11-1-0-0000-3h4-3\1-0------|
D|-0-0000-11-1-0-0000-3h4-3\1-0------|
     ....        ....

e|-----------------------------------|
B|-----------------------------------|
G|-----------------------------------|
D|-0-0000-11-1-0-0000----------------|
A|-0-0000-11-1-0-0000----------------|
D|-0-0000-11-1-0-0000-3tr4tr3tr1tr0--|
     ....        .... ... ... .
Play this 2 times 

but the second part in the second time ends like this
e|-----------------------------------|
B|-----------------------------------|
G|-----------------------------------|
D|-0-0000-11-1-0-0000----------------|
A|-0-0000-11-1-0-0000----------------|
D|-0-0000-11-1-0-0000-3tr4tr3tr1tr5\-|
     ....        .... ... ... .

Riff 9
e|------------------|
B|------------------|
G|------------------|
D|-8---8-7-10-7-8---|
A|---8--------------|
D|------------------|
Play this 4 times

Riff 2/10 

e|-------------------------------|
B|-------------------------------|
G|-------------------------------|
D|---8-7-5---8-7-5---8-7-5-------|
A|-5-------5-------5-------5---5-|
D|---------------------------8---|
 |
e|------------------|
B|------------------|
G|------------------|
D|-5~-4~-5~-4~-8-1--|
A|-5~-4~-5~-4~-8-1--|
D|-5~-4~-5~-4~-8-1--|

e|---------------------------------|
B|---------------------------------|
G|-------6---------------6---------|
D|---7-6---7-6-4---7-6-4---7-6-4-6-|
A|-4-------------4-----------------|
D|---------------------------------|
 |
e|------------------|
B|------------------|
G|------------------|
D|-5~-4~-5~-4~-8-1--|
A|-5~-4~-5~-4~-8-1--|
D|-5~-4~-5~-4~-8-1--|
Play this 2 times
But the second part the first guitar the second time I don't get the scale :S

Riff 3
e|----------------------------------------------------------|
B|----------------------------/14----------/14-15-14--------|
G|-/15-14-12-14-15-14-12-14-15----14-11-14----------/14-/11-|
D|----------------------------------------------------------|
A|----------------------------------------------------------|
D|----------------------------------------------------------|
 |
e|----------------------------------/5-5~-------------------|
B|-------------------/7---7---7-8-7-------------------------|
G|-/7-5---5-7-5---5-7---5---5-------------------------------|
D|------8-------8-------------------------------------------|
A|----------------------------------------------------------|
D|----------------------------------------------------------|

e|------------------------------------------------------------|
B|-----------------------------/14----------/14-16------------|
G|-/15-14-12-14-15-14-12-14-15-----14-11-14--------15-11------|
D|-------------------------------------------------------13~\-|
A|------------------------------------------------------------|
D|------------------------------------------------------------|
 |
e|------------------------------------------------------------|
B|-------------------/7---7---7-4-----------------------------|
G|-/7-5---5-7-5---5-7---5---5-----3---------------------------|
D|------8-------8---------------------------------------------|
A|----------------------------------6~\-----------------------|
D|------------------------------------------------------------|
Play this 2 times

Thats all the song :)

************************************

| /   slide up
| \   slide down
| h   hammer-on
| p   pull-off
| ~   vibrato
| +   harmonic
| x   Mute note
| b   Bend
| pb  Pre-bend
| br  Bend release
| pbr Pre-bend release
| brb Bend release bend

************************************
comments
We did not receive enough feedback on this tab! Please rate:
print report bad tab
1 2 3 4 5
I want to post or [tab]
guest
You may want to rate the tab now too:
select rating
Please do not post tabs as comments. Select "correction" instead!