Oops, an error
Loading. Please wait.

Mannequin Bass Tab

version 1
version 1

Whole song

Interactive

681 views 1 this week
1 commentread comment
1 2 3 4 5
please rate
add to favorites
launch autoscroll
font size
0
reset
guitar tuner
Autoscroll
slow
fast
+/-
esc
set tempo
stop
Help us to improve Ultimate-Guitar.com Take our survey!
×
Don't worry, the tab is tabbed-out, so, you don't have to take a whole day to learn when 
you are supposed to play a part of the song. example: RIFF A (x4)


* = Let the note ring
\ = Slide down
/ = Slide up




[0:13] RIFF A. 					(Play to times)
G|---------------------------------------------------------------------|
D|-8-9*---8-8*-9---8-9*-8-9*-11-9-11--8-9*---8-8*-9---8-9*-8-9*-11-9-8-|
A|---------------------------------------------------------------------|
E|---------------------------------------------------------------------|



[0:35] RIFF B. (Play twice)
       		(x2)
G|------------------|--6---------------------------------------|
D|----9*--8--6-6*---|----5--8-9----------5--8-9----------------|
A|------------------|-----------6*--10\5--------6*--8-9*---8989|
E|------------------|--------------7---------------------------|
REPEAT (RIFF B)




[0:58] RIFF C. 
G|-------------------------------------------------------|
D|-------------------------------------------------------|
A|-------------------------------------------------------|
E|8*--8*--8h9--8*--8*--8h9--8*--8*--8h9-10-9-8-7-8-9-8-7-|


[1:04] RIFF C. 
G|--------------------------------------------------------------|
D|--------------------------------------------------------------|
A|--------------------------------------------------------------|
E|8*--8*--8h9--8*--8*--8h9--8*--8*--8h9-13-12-11-10-11-12-11-10-|

First Part and second part again...
G|-------------------------------------------------------|
D|-------------------------------------------------------|
A|-------------------------------------------------------|
E|8*--8*--8h9--8*--8*--8h9--8*--8*--8h9-10-9-8-7-8-9-8-7-|

G|--------------------------------------------------------------|
D|--------------------------------------------------------------|
A|--------------------------------------------------------------|
E|8*--8*--8h9--8*--8*--8h9--8*--8*--8h9-13-12-11-10-11-12-11-10-|





[1:20]: RIFF A(x2)
G|---------------------------------------------------------------------|
D|-8-9*---8-8*-9---8-9*-8-9*-11-9-11--8-9*---8-8*-9---8-9*-8-9*-11-9-8-|
A|---------------------------------------------------------------------|
E|---------------------------------------------------------------------|
[1:43]: RIFF B(X2)
G|------------------|--6---------------------------------------|
D|----9*--8--6-6*---|----5--8-9----------5--8-9----------------|
A|------------------|-----------6*--10\5--------6*--8-9*---8989|
E|------------------|--------------7---------------------------|







[2:06]: RIFF C(x2)
G|-------------------------------------------------------|
D|-------------------------------------------------------|
A|-------------------------------------------------------|
E|8*--8*--8h9--8*--8*--8h9--8*--8*--8h9-10-9-8-7-8-9-8-7-|

G|--------------------------------------------------------------|
D|--------------------------------------------------------------|
A|--------------------------------------------------------------|
E|8*--8*--8h9--8*--8*--8h9--8*--8*--8h9-13-12-11-10-11-12-11-10-|



[2:28] RIFF D
G|-------------------------------------------------|
D|-------------------------------------------------|
A|-----------7*---6*-------------6*---7*---8-9-7-6-|
E|-6*---5*-------------8*---7*---------------------|




[2:39] FILL #1
           (x2)           (x2)
G|-----------------|-----------------|
D|-----------------|-----------------|   Fast part
A|-8-7-6-5-6-7-6-5-|-5-4-3-2-3-4-3-2-|   
E|-----------------|-----------------|

FILL #1
           	(x2)           
G|--------------------|-----------------|-----------------|
D|-6-5-4-3-4-5-4-3----|-9-8-7-6-7-8-7-6-|-----------------|   Fast part
A|--------------------|-----------------|-9-8-7-6-7-8-7-6-|   
E|--------------------|-----------------|-----------------|

FILL #1 (Last time...)
           (x2)           (x2)
G|-----------------|-----------------|
D|-----------------|-----------------|   Fast part
A|-8-7-6-5-6-7-6-5-|-5-4-3-2-3-4-3-2-|   
E|-----------------|-----------------|

FILL #1 (End...)
           	(x2)           
G|--------------------|-----------------|-----------------|
D|-6-5-4-3-4-5-4-3----|-9-8-7-6-7-8-7-6-|-----------------|   Fast part
A|--------------------|-----------------|-9-8-7-6-7-8-7-6-|   
E|--------------------|-----------------|-----------------|





[3:02 or 3:03] (The 6 on the A string must ring as long as it can)

[3:13] RIFF A (x2)
G|---------------------------------------------------------------------|
D|-8-9*---8-8*-9---8-9*-8-9*-11-9-11--8-9*---8-8*-9---8-9*-8-9*-11-9-8-|
A|---------------------------------------------------------------------|
E|---------------------------------------------------------------------|
[3:36] RIFF B (X3)
G|------------------|--6---------------------------------------|
D|----9*--8--6-6*---|----5--8-9----------5--8-9----------------|
A|------------------|-----------6*--10\5--------6*--8-9*---8989|
E|------------------|--------------7---------------------------|







I've just made some changes, because there was little errors, like in the RIFF A,
I've just exchanged a 11 for a 8...
Maybe there are some possible things changeable in this tab, because sometimes, the
bass is not really important, and I can't really know how it is supposed to sound...
I hope you'll enjoy playing this hole new song from the brand new CD Damnation a Day
of Cradle of Filth!

If there is or are correction(s) to make, please e-mail me at kenven_maiden@yahoo.com,

(Write if you are a 16 years old girl with a great body).


Bye...
Suggest correction
Give kudos to tab author, rate the tab!
1 2 3 4 5
comments
print report bad tab
1 comment total.
0 reply
BroDD 368 wrote on July 8 2006, 11:49 am

Cradle uses a 5 stringed bass, and they DON'T use standard tuning...

guest
You may want to rate the tab now too:
select rating
Wanna post a correction for this tab? Suggest correction